  0
SECTION
  2
HEADER
  9
$ACADVER
  1
AC1014
  9
$ACADMAINTVER
 70
               0
  9
$DWGCODEPAGE
  3
ANSI_932
  9
$INSBASE
 10
0.0
 20
0.0
 30
0.0
  9
$EXTMIN
 10
0.0
 20
0.0
 30
0.0
  9
$EXTMAX
 10
1682.0
 20
1188.0
 30
0.0
  9
$LIMMIN
 10
0.0
 20
0.0
  9
$LIMMAX
 10
1682.0
 20
1188.0
  9
$ORTHOMODE
 70
               0
  9
$REGENMODE
 70
               1
  9
$FILLMODE
 70
               1
  9
$QTEXTMODE
 70
               0
  9
$MIRRTEXT
 70
               1
  9
$DRAGMODE
 70
               2
  9
$LTSCALE
 40
2.0
  9
$OSMODE
 70
               0
  9
$ATTMODE
 70
               1
  9
$TEXTSIZE
 40
0.2
  9
$TRACEWID
 40
0.05
  9
$TEXTSTYLE
  7
Standard
  9
$CLAYER
  8
0
  9
$CELTYPE
  6
Continuous
  9
$CECOLOR
 62
             256
  9
$CELTSCALE
 40
1.0
  9
$DELOBJ
 70
               1
  9
$DISPSILH
 70
               0
  9
$DIMSCALE
 40
1.0
  9
$DIMASZ
 40
0.18
  9
$DIMEXO
 40
0.0625
  9
$DIMDLI
 40
0.38
  9
$DIMRND
 40
0.0
  9
$DIMDLE
 40
0.0
  9
$DIMEXE
 40
0.18
  9
$DIMTP
 40
0.0
  9
$DIMTM
 40
0.0
  9
$DIMTXT
 40
0.18
  9
$DIMCEN
 40
0.09
  9
$DIMTSZ
 40
0.0
  9
$DIMTOL
 70
               0
  9
$DIMLIM
 70
               0
  9
$DIMTIH
 70
               1
  9
$DIMTOH
 70
               1
  9
$DIMSE1
 70
               0
  9
$DIMSE2
 70
               0
  9
$DIMTAD
 70
               0
  9
$DIMZIN
 70
               0
  9
$DIMBLK
  1

  9
$DIMASO
 70
               1
  9
$DIMSHO
 70
               1
  9
$DIMPOST
  1

  9
$DIMAPOST
  1

  9
$DIMALT
 70
               0
  9
$DIMALTD
 70
               2
  9
$DIMALTF
 40
25.399999999999999
  9
$DIMLFAC
 40
1.0
  9
$DIMTOFL
 70
               0
  9
$DIMTVP
 40
0.0
  9
$DIMTIX
 70
               0
  9
$DIMSOXD
 70
               0
  9
$DIMSAH
 70
               0
  9
$DIMBLK1
  1

  9
$DIMBLK2
  1

  9
$DIMSTYLE
  2
Standard
  9
$DIMCLRD
 70
               0
  9
$DIMCLRE
 70
               0
  9
$DIMCLRT
 70
               0
  9
$DIMTFAC
 40
1.0
  9
$DIMGAP
 40
0.09
  9
$DIMJUST
 70
               0
  9
$DIMSD1
 70
               0
  9
$DIMSD2
 70
               0
  9
$DIMTOLJ
 70
               1
  9
$DIMTZIN
 70
               0
  9
$DIMALTZ
 70
               0
  9
$DIMALTTZ
 70
               0
  9
$DIMFIT
 70
               3
  9
$DIMUPT
 70
               0
  9
$DIMUNIT
 70
               2
  9
$DIMDEC
 70
               4
  9
$DIMTDEC
 70
               4
  9
$DIMALTU
 70
               2
  9
$DIMALTTD
 70
               2
  9
$DIMTXSTY
  7
Standard
  9
$DIMAUNIT
 70
               0
  9
$LUNITS
 70
               2
  9
$LUPREC
 70
               4
  9
$SKETCHINC
 40
0.1
  9
$FILLETRAD
 40
0.0
  9
$AUNITS
 70
               0
  9
$AUPREC
 70
               0
  9
$MENU
  1
acad
  9
$ELEVATION
 40
0.0
  9
$PELEVATION
 40
0.0
  9
$THICKNESS
 40
0.0
  9
$LIMCHECK
 70
               0
  9
$BLIPMODE
 70
               1
  9
$CHAMFERA
 40
0.0
  9
$CHAMFERB
 40
0.0
  9
$CHAMFERC
 40
0.0
  9
$CHAMFERD
 40
0.0
  9
$SKPOLY
 70
               0
  9
$TDCREATE
 40
0.000000000
  9
$TDUPDATE
 40
0.000000000
  9
$TDINDWG
 40
0.0000000000
  9
$TDUSRTIMER
 40
0.0000000000
  9
$USRTIMER
 70
               1
  9
$ANGBASE
 50
0.0
  9
$ANGDIR
 70
               0
  9
$PDMODE
 70
               0
  9
$PDSIZE
 40
0.0
  9
$PLINEWID
 40
0.0
  9
$COORDS
 70
               0
  9
$SPLFRAME
 70
               0
  9
$SPLINETYPE
 70
               6
  9
$SPLINESEGS
 70
               8
  9
$ATTDIA
 70
               0
  9
$ATTREQ
 70
               1
  9
$HANDLING
 70
               1
  9
$HANDSEED
  5
523
  9
$SURFTAB1
 70
               6
  9
$SURFTAB2
 70
               6
  9
$SURFTYPE
 70
               6
  9
$SURFU
 70
               6
  9
$SURFV
 70
               6
  9
$UCSNAME
  2

  9
$UCSORG
 10
0.0
 20
0.0
 30
0.0
  9
$UCSXDIR
 10
1.0
 20
0.0
 30
0.0
  9
$UCSYDIR
 10
0.0
 20
1.0
 30
0.0
  9
$PUCSNAME
  2

  9
$PUCSORG
 10
0.0
 20
0.0
 30
0.0
  9
$PUCSXDIR
 10
1.0
 20
0.0
 30
0.0
  9
$PUCSYDIR
 10
0.0
 20
1.0
 30
0.0
  9
$USERI1
 70
               0
  9
$USERI2
 70
               0
  9
$USERI3
 70
               0
  9
$USERI4
 70
               0
  9
$USERI5
 70
               0
  9
$USERR1
 40
0.0
  9
$USERR2
 40
0.0
  9
$USERR3
 40
0.0
  9
$USERR4
 40
0.0
  9
$USERR5
 40
0.0
  9
$WORLDVIEW
 70
               1
  9
$SHADEDGE
 70
               3
  9
$SHADEDIF
 70
              70
  9
$TILEMODE
 70
               1
  9
$MAXACTVP
 70
              16
  9
$PINSBASE
 10
0.0
 20
0.0
 30
0.0
  9
$PLIMCHECK
 70
               0
  9
$PEXTMIN
 10
1.0000000000000000E+20
 20
1.0000000000000000E+20
 30
1.0000000000000000E+20
  9
$PEXTMAX
 10
-1.0000000000000000E+20
 20
-1.0000000000000000E+20
 30
-1.0000000000000000E+20
  9
$PLIMMIN
 10
0.0
 20
0.0
  9
$PLIMMAX
 10
12.0
 20
9.0
  9
$UNITMODE
 70
               0
  9
$VISRETAIN
 70
               0
  9
$PLINEGEN
 70
               1
  9
$PSLTSCALE
 70
               0
  9
$TREEDEPTH
 70
            3020
  9
$PICKSTYLE
 70
               1
  9
$CMLSTYLE
  2
Standard
  9
$CMLJUST
 70
               0
  9
$CMLSCALE
 40
1.0
  9
$PROXYGRAPHICS
 70
               0
  9
$MEASUREMENT
 70
               0
  0
ENDSEC
  0
SECTION
  2
CLASSES
  0
CLASS
  1
LWPOLYLINE
  2
AcDbPolyline
  3
"AutoCAD"
 90
        0
280
               0
281
               1
  0
CLASS
  1
IMAGE
  2
AcDbRasterImage
  3
ISM
 90
      127
280
               0
281
               1
  0
CLASS
  1
OLE2FRAME
  2
AcDbOle2Frame
  3
""
 90
        0
280
               0
281
               1
  0
CLASS
  1
HATCH
  2
AcDbHatch
  3
"ACAD_SEDONA"
 90
        0
280
               0
281
               1
  0
CLASS
  1
DICTIONARYVAR
  2
AcDbDictionaryVar
  3
"AutoCAD"
 90
        0
280
               0
281
               0
  0
CLASS
  1
RASTERVARIABLES
  2
AcDbRasterVariables
  3
ISM
 90
        0
280
               0
281
               0
  0
CLASS
  1
IMAGEDEF
  2
AcDbRasterImageDef
  3
ISM
 90
        0
280
               0
281
               0
  0
CLASS
  1
IMAGEDEF_REACTOR
  2
AcDbRasterImageDefReactor
  3
ISM
 90
        1
280
               0
281
               0
  0
CLASS
  1
IDBUFFER
  2
AcDbIdBuffer
  3
"Acad"
 90
        0
280
               0
281
               0
  0
CLASS
  1
SPATIAL_FILTER
  2
AcDbSpatialFilter
  3
"Acad"
 90
        0
280
               0
281
               0
  0
CLASS
  1
XRECORD
  2
AcDbXrecord
  3
"<Built In>"
 90
        0
280
               0
281
               0
  0
CLASS
  1
SORTENTSTABLE
  2
AcDbSortentsTable
  3
"AutoCAD"
 90
        0
280
               0
281
               0
  0
CLASS
  1
LAYER_INDEX
  2
AcDbLayerIndex
  3
"Acad"
 90
        0
280
               0
281
               0
  0
CLASS
  1
SPATIAL_INDEX
  2
AcDbSpatialIndex
  3
"Acad"
 90
        0
280
               0
281
               0
  0
CLASS
  1
OBJECT_PTR
  2
CAseDLPNTableRecord
  3
"ASE-LPNTableRecord"
 90
        1
280
               0
281
               0
  0
CLASS
  1
LAYOUT
  2
AcDbLayout
  3
"AutoCAD 2000"
 90
        0
280
               0
281
               0
  0
CLASS
  1
PLOTSETTINGS
  2
AcDbPlotSettings
  3
"AutoCAD 2000"
 90
        0
280
               0
281
               0
  0
CLASS
  1
ACDBDICTIONARYWDFLT
  2
AcDbDictionaryWithDefault
  3
"AutoCAD 2000"
 90
        0
280
               0
281
               0
  0
CLASS
  1
ACDBPLACEHOLDER
  2
AcDbPlaceHolder
  3
"AutoCAD 2000"
 90
        0
280
               0
281
               0
  0
CLASS
  1
VBA_PROJECT
  2
AcDbVbaProject
  3
"acadvba"
 90
        0
280
               0
281
               0
  0
CLASS
  1
WIPEOUT
  2
AcDbWipeout
  3
WipeOut|AutoCAD Express Tool|expresstools@autodesk.com
 90
      127
280
               0
281
               1
  0
CLASS
  1
WIPEOUTVARIABLES
  2
AcDbWipeoutVariables
  3
WipeOut|AutoCAD Express Tool|expresstools@autodesk.com
 90
        0
280
               0
281
               0
  0
CLASS
  1
RTEXT
  2
RText
  3
RText|AutoCAD Express Tool|expresstools@autodesk.com
 90
        0
280
               0
281
               1
  0
CLASS
  1
ARCALIGNEDTEXT
  2
AcDbArcAlignedText
  3
ATEXT|AutoCAD Express Tool|expresstools@autodesk.com
 90
        0
280
               0
281
               1
  0
ENDSEC
  0
SECTION
  2
TABLES
  0
TABLE
  2
VPORT
  5
7
100
AcDbSymbolTable
 70
               1
  0
VPORT
  5
15
100
AcDbSymbolTableRecord
100
AcDbViewportTableRecord
  2
*ACTIVE
 70
               0
 10
0.0
 20
0.0
 11
1.0
 21
1.0
 12
841.0
 22
594.0
 13
0.0
 23
0.0
 14
10.0
 24
10.0
 15
10.0
 25
10.0
 16
0.0
 26
0.0
 36
1.0
 17
0.0
 27
0.0
 37
0.0
 40
1188.0
 41
1.4158249158249159
 42
50.0
 43
0.0
 44
0.0
 50
0.0
 51
0.0
 71
               0
 72
             100
 73
               1
 74
               1
 75
               0
 76
               0
 77
               0
 78
               0
  0
ENDTAB
  0
TABLE
  2
LTYPE
  5
4
100
AcDbSymbolTable
 70
              24
  0
LTYPE
  5
11
100
AcDbSymbolTableRecord
100
AcDbLinetypeTableRecord
  2
ByBlock
 70
              64
  3

 72
              65
 73
               0
 40
0.0
  0
LTYPE
  5
12
100
AcDbSymbolTableRecord
100
AcDbLinetypeTableRecord
  2
ByLayer
 70
              64
  3

 72
              65
 73
               0
 40
0.0
  0
LTYPE
  5
13
100
AcDbSymbolTableRecord
100
AcDbLinetypeTableRecord
  2
Continuous
 70
              64
  3
Solid line
 72
              65
 73
               0
 40
0.0
  0
LTYPE
  5
1D
100
AcDbSymbolTableRecord
100
AcDbLinetypeTableRecord
  2
DOT
 70
              64
  3
Dot . . . . . . . . . . . . . . . . . . . . . .
 72
              65
 73
               2
 40
6.3499999999999996
 49
0.35
 74
               0
 49
-6.0
 74
               0
  0
LTYPE
  5
1E
100
AcDbSymbolTableRecord
100
AcDbLinetypeTableRecord
  2
DASHED
 70
              64
  3
Dashed __ __ __ __ __ __ __ __ __ __ __ __ __ _
 72
              65
 73
               2
 40
12.699999999999999
 49
6.3499999999999996
 74
               0
 49
-6.3499999999999996
 74
               0
  0
LTYPE
  5
1F
100
AcDbSymbolTableRecord
100
AcDbLinetypeTableRecord
  2
DASHDOT
 70
              64
  3
Dash dot __ . __ . __ . __ . __ . __ . __ . __
 72
              65
 73
               4
 40
25.399999999999999
 49
12.699999999999999
 74
               0
 49
-6.0
 74
               0
 49
0.7
 74
               0
 49
-6.0
 74
               0
  0
LTYPE
  5
20
100
AcDbSymbolTableRecord
100
AcDbLinetypeTableRecord
  2
DIVIDE
 70
              64
  3
Divide ____ . . ____ . . ____ . . ____ . . ____
 72
              65
 73
               6
 40
31.75
 49
12.699999999999999
 74
               0
 49
-6.0
 74
               0
 49
0.875
 74
               0
 49
-6.0
 74
               0
 49
0.875
 74
               0
 49
-6.0
 74
               0
  0
LTYPE
  5
21
100
AcDbSymbolTableRecord
100
AcDbLinetypeTableRecord
  2
HIDDEN
 70
              64
  3
Hidden __ __ __ __ __ __ __ __ __ __ __ __ __ _
 72
              65
 73
               2
 40
9.5250000000000004
 49
6.3499999999999996
 74
               0
 49
-3.1749999999999998
 74
               0
  0
LTYPE
  5
22
100
AcDbSymbolTableRecord
100
AcDbLinetypeTableRecord
  2
CENTER
 70
              64
  3
Center ____ _ ____ _ ____ _ ____ _ ____ _ ____
 72
              65
 73
               4
 40
50.799999999999997
 49
31.75
 74
               0
 49
-6.3499999999999996
 74
               0
 49
6.3499999999999996
 74
               0
 49
-6.3499999999999996
 74
               0
  0
LTYPE
  5
23
100
AcDbSymbolTableRecord
100
AcDbLinetypeTableRecord
  2
PHANTOM
 70
              64
  3
Phantom ______  __  __  ______  __  __  ______
 72
              65
 73
               6
 40
63.5
 49
31.75
 74
               0
 49
-6.3499999999999996
 74
               0
 49
6.3499999999999996
 74
               0
 49
-6.3499999999999996
 74
               0
 49
6.3499999999999996
 74
               0
 49
-6.3499999999999996
 74
               0
  0
LTYPE
  5
24
100
AcDbSymbolTableRecord
100
AcDbLinetypeTableRecord
  2
ACAD_ISO02W100
 70
              64
  3
ISO dash __ __ __ __ __ __ __ __ __ __ __ __ __
 72
              65
 73
               2
 40
15.0
 49
12.0
 74
               0
 49
-3.0
 74
               0
  0
LTYPE
  5
25
100
AcDbSymbolTableRecord
100
AcDbLinetypeTableRecord
  2
ACAD_ISO03W100
 70
              64
  3
ISO dash space __ __ __ __ __ __ __ __ __ __ __ __ __ __
 72
              65
 73
               2
 40
30.0
 49
12.0
 74
               0
 49
-18.0
 74
               0
  0
LTYPE
  5
26
100
AcDbSymbolTableRecord
100
AcDbLinetypeTableRecord
  2
ACAD_ISO04W100
 70
              64
  3
ISO long-dash dot ____ . ____ . ____ . ____ . _
 72
              65
 73
               4
 40
30.0
 49
24.0
 74
               0
 49
-3.0
 74
               0
 49
0.0
 74
               0
 49
-3.0
 74
               0
  0
LTYPE
  5
27
100
AcDbSymbolTableRecord
100
AcDbLinetypeTableRecord
  2
ACAD_ISO05W100
 70
              64
  3
ISO long-dash double-dot ____ .. ____ .. ____ .
 72
              65
 73
               6
 40
33.0
 49
24.0
 74
               0
 49
-3.0
 74
               0
 49
0.0
 74
               0
 49
-3.0
 74
               0
 49
0.0
 74
               0
 49
-3.0
 74
               0
  0
LTYPE
  5
28
100
AcDbSymbolTableRecord
100
AcDbLinetypeTableRecord
  2
ACAD_ISO06W100
 70
              64
  3
ISO long-dash triple-dot ____ ... ____ ... ____
 72
              65
 73
               8
 40
36.0
 49
24.0
 74
               0
 49
-3.0
 74
               0
 49
0.0
 74
               0
 49
-3.0
 74
               0
 49
0.0
 74
               0
 49
-3.0
 74
               0
 49
0.0
 74
               0
 49
-3.0
 74
               0
  0
LTYPE
  5
29
100
AcDbSymbolTableRecord
100
AcDbLinetypeTableRecord
  2
ACAD_ISO07W100
 70
              64
  3
ISO dot . . . . . . . . . . . . . . . . . . . .
 72
              65
 73
               2
 40
3.0
 49
0.0
 74
               0
 49
-3.0
 74
               0
  0
LTYPE
  5
2A
100
AcDbSymbolTableRecord
100
AcDbLinetypeTableRecord
  2
ACAD_ISO08W100
 70
              64
  3
ISO long-dash short-dash ____ __ ____ __ ____ _
 72
              65
 73
               4
 40
36.0
 49
24.0
 74
               0
 49
-3.0
 74
               0
 49
6.0
 74
               0
 49
-3.0
 74
               0
  0
LTYPE
  5
2B
100
AcDbSymbolTableRecord
100
AcDbLinetypeTableRecord
  2
ACAD_ISO09W100
 70
              64
  3
ISO long-dash double-short-dash ____ __ __ ____
 72
              65
 73
               6
 40
45.0
 49
24.0
 74
               0
 49
-3.0
 74
               0
 49
6.0
 74
               0
 49
-3.0
 74
               0
 49
6.0
 74
               0
 49
-3.0
 74
               0
  0
LTYPE
  5
2C
100
AcDbSymbolTableRecord
100
AcDbLinetypeTableRecord
  2
ACAD_ISO10W100
 70
              64
  3
ISO dash dot __ . __ . __ . __ . __ . __ . __ .
 72
              65
 73
               4
 40
18.0
 49
12.0
 74
               0
 49
-3.0
 74
               0
 49
0.0
 74
               0
 49
-3.0
 74
               0
  0
LTYPE
  5
2D
100
AcDbSymbolTableRecord
100
AcDbLinetypeTableRecord
  2
ACAD_ISO11W100
 70
              64
  3
ISO double-dash dot __ __ . __ __ . __ __ . __ 
 72
              65
 73
               6
 40
33.0
 49
12.0
 74
               0
 49
-3.0
 74
               0
 49
12.0
 74
               0
 49
-3.0
 74
               0
 49
0.0
 74
               0
 49
-3.0
 74
               0
  0
LTYPE
  5
2E
100
AcDbSymbolTableRecord
100
AcDbLinetypeTableRecord
  2
ACAD_ISO12W100
 70
              64
  3
ISO dash double-dot __ . . __ . . __ . . __ . .
 72
              65
 73
               6
 40
21.0
 49
12.0
 74
               0
 49
-3.0
 74
               0
 49
0.0
 74
               0
 49
-3.0
 74
               0
 49
0.0
 74
               0
 49
-3.0
 74
               0
  0
LTYPE
  5
2F
100
AcDbSymbolTableRecord
100
AcDbLinetypeTableRecord
  2
ACAD_ISO13W100
 70
              64
  3
ISO double-dash double-dot __ __ . . __ __ . . 
 72
              65
 73
               8
 40
36.0
 49
12.0
 74
               0
 49
-3.0
 74
               0
 49
12.0
 74
               0
 49
-3.0
 74
               0
 49
0.0
 74
               0
 49
-3.0
 74
               0
 49
0.0
 74
               0
 49
-3.0
 74
               0
  0
LTYPE
  5
30
100
AcDbSymbolTableRecord
100
AcDbLinetypeTableRecord
  2
ACAD_ISO14W100
 70
              64
  3
ISO dash triple-dot __ . . . __ . . . __ . . . 
 72
              65
 73
               8
 40
24.0
 49
12.0
 74
               0
 49
-3.0
 74
               0
 49
0.0
 74
               0
 49
-3.0
 74
               0
 49
0.0
 74
               0
 49
-3.0
 74
               0
 49
0.0
 74
               0
 49
-3.0
 74
               0
  0
LTYPE
  5
31
100
AcDbSymbolTableRecord
100
AcDbLinetypeTableRecord
  2
ACAD_ISO15W100
 70
              64
  3
ISO double-dash double-dot __ __ . . __ __ . . 
 72
              65
 73
              10
 40
39.0
 49
12.0
 74
               0
 49
-3.0
 74
               0
 49
12.0
 74
               0
 49
-3.0
 74
               0
 49
0.0
 74
               0
 49
-3.0
 74
               0
 49
0.0
 74
               0
 49
-3.0
 74
               0
 49
0.0
 74
               0
 49
-3.0
 74
               0
  0
ENDTAB
  0
TABLE
  2
LAYER
  5
2
100
AcDbSymbolTable
 70
              18
  0
LAYER
  5
14
100
AcDbSymbolTableRecord
100
AcDbLayerTableRecord
  2
0
 70
               0
 62
               7
  6
Continuous
  0
LAYER
  5
35
100
AcDbSymbolTableRecord
100
AcDbLayerTableRecord
  2
1
 70
               0
 62
              -7
  6
Continuous
  0
LAYER
  5
36
100
AcDbSymbolTableRecord
100
AcDbLayerTableRecord
  2
2
 70
               0
 62
               7
  6
Continuous
  0
LAYER
  5
37
100
AcDbSymbolTableRecord
100
AcDbLayerTableRecord
  2
3
 70
               0
 62
               7
  6
Continuous
  0
LAYER
  5
38
100
AcDbSymbolTableRecord
100
AcDbLayerTableRecord
  2
4
 70
               0
 62
               7
  6
Continuous
  0
LAYER
  5
39
100
AcDbSymbolTableRecord
100
AcDbLayerTableRecord
  2
5
 70
               0
 62
               7
  6
Continuous
  0
LAYER
  5
3A
100
AcDbSymbolTableRecord
100
AcDbLayerTableRecord
  2
6
 70
               0
 62
               7
  6
Continuous
  0
LAYER
  5
3B
100
AcDbSymbolTableRecord
100
AcDbLayerTableRecord
  2
7
 70
               0
 62
               7
  6
Continuous
  0
LAYER
  5
3C
100
AcDbSymbolTableRecord
100
AcDbLayerTableRecord
  2
8
 70
               0
 62
               7
  6
Continuous
  0
LAYER
  5
3D
100
AcDbSymbolTableRecord
100
AcDbLayerTableRecord
  2
9
 70
               0
 62
               7
  6
Continuous
  0
LAYER
  5
3E
100
AcDbSymbolTableRecord
100
AcDbLayerTableRecord
  2
10
 70
               0
 62
               7
  6
Continuous
  0
LAYER
  5
3F
100
AcDbSymbolTableRecord
100
AcDbLayerTableRecord
  2
11
 70
               0
 62
               7
  6
Continuous
  0
LAYER
  5
40
100
AcDbSymbolTableRecord
100
AcDbLayerTableRecord
  2
12
 70
               0
 62
               7
  6
Continuous
  0
LAYER
  5
41
100
AcDbSymbolTableRecord
100
AcDbLayerTableRecord
  2
13
 70
               0
 62
               7
  6
Continuous
  0
LAYER
  5
42
100
AcDbSymbolTableRecord
100
AcDbLayerTableRecord
  2
14
 70
               0
 62
               7
  6
Continuous
  0
LAYER
  5
43
100
AcDbSymbolTableRecord
100
AcDbLayerTableRecord
  2
15
 70
               0
 62
               7
  6
Continuous
  0
LAYER
  5
44
100
AcDbSymbolTableRecord
100
AcDbLayerTableRecord
  2
HOZYOTEN
 70
               0
 62
               7
  6
Continuous
  0
LAYER
  5
45
100
AcDbSymbolTableRecord
100
AcDbLayerTableRecord
  2
DEFPOINTS
 70
               0
 62
               7
  6
Continuous
  0
ENDTAB
  0
TABLE
  2
STYLE
  5
3
100
AcDbSymbolTable
 70
               4
  0
STYLE
  5
17
100
AcDbSymbolTableRecord
100
AcDbTextStyleTableRecord
  2
Standard
 70
               0
 40
0.0
 41
1.0
 50
0.0
 71
               0
 42
0.0
  3
txt.shx
  4
bigfont.shx
  0
STYLE
  5
32
100
AcDbSymbolTableRecord
100
AcDbTextStyleTableRecord
  2
STANDARD_T
 70
               4
 40
0.0
 41
1.0
 50
0.0
 71
               0
 42
0.0
  3
txt.shx
  4
bigfont.shx
  0
STYLE
  5
33
100
AcDbSymbolTableRecord
100
AcDbTextStyleTableRecord
  2
FontTableH_0
 70
               0
 40
0.0
 41
1.0
 50
0.0
 71
               0
 42
0.0
  3
MS Gothic.ttf
  4

1001
ACAD
1000
MS Gothic
1071
    32817
  0
STYLE
  5
34
100
AcDbSymbolTableRecord
100
AcDbTextStyleTableRecord
  2
FontTableV_0
 70
               0
 40
0.0
 41
1.0
 50
0.0
 71
               0
 42
0.0
  3
@MS Gothic.ttf
  4

1001
ACAD
1000
@MS Gothic
1071
    32817
  0
ENDTAB
  0
TABLE
  2
VIEW
  5
5
100
AcDbSymbolTable
 70
               0
  0
ENDTAB
  0
TABLE
  2
UCS
  5
6
100
AcDbSymbolTable
 70
               0
  0
ENDTAB
  0
TABLE
  2
APPID
  5
8
100
AcDbSymbolTable
 70
               1
  0
APPID
  5
16
100
AcDbSymbolTableRecord
100
AcDbRegAppTableRecord
  2
ACAD
 70
               0
  0
ENDTAB
  0
TABLE
  2
DIMSTYLE
  5
9
100
AcDbSymbolTable
 70
               1
  0
DIMSTYLE
105
18
100
AcDbSymbolTableRecord
100
AcDbDimStyleTableRecord
  2
Standard
 70
               0
  3

  4

  5

  6

  7

 40
1.0
 41
0.18
 42
0.0625
 43
0.38
 44
0.18
 45
0.0
 46
0.0
 47
0.0
 48
0.0
 71
               0
 72
               0
 73
               1
 74
               1
 75
               0
 76
               0
 77
               0
 78
               0
140
0.18
141
0.09
142
0.0
143
25.399999999999999
144
1.0
145
0.0
146
1.0
147
0.09
170
               0
171
               2
172
               0
173
               0
174
               0
175
               0
176
               0
177
               0
178
               0
270
               2
271
               4
272
               4
273
               2
274
               2
275
               0
280
               0
281
               0
282
               0
283
               1
284
               0
285
               0
286
               0
287
               0
288
               0
340
17
  0
ENDTAB
  0
TABLE
  2
BLOCK_RECORD
  5
1
100
AcDbSymbolTable
 70
               0
  0
BLOCK_RECORD
  5
A
100
AcDbSymbolTableRecord
100
AcDbBlockTableRecord
  2
*MODEL_SPACE
  0
BLOCK_RECORD
  5
B
100
AcDbSymbolTableRecord
100
AcDbBlockTableRecord
  2
*PAPER_SPACE
  0
ENDTAB
  0
ENDSEC
  0
SECTION
  2
BLOCKS
  0
BLOCK
  5
D
100
AcDbEntity
  8
0
100
AcDbBlockBegin
  2
*MODEL_SPACE
 70
               0
 10
0.0
 20
0.0
 30
0.0
  3
*MODEL_SPACE
  1

  0
ENDBLK
  5
E
100
AcDbEntity
  8
0
100
AcDbBlockEnd
  0
BLOCK
  5
F
100
AcDbEntity
 67
               1
  8
0
100
AcDbBlockBegin
  2
*PAPER_SPACE
 70
               0
 10
0.0
 20
0.0
 30
0.0
  3
*PAPER_SPACE
  1

  0
ENDBLK
  5
10
100
AcDbEntity
 67
               1
  8
0
100
AcDbBlockEnd
  0
ENDSEC
  0
SECTION
  2
ENTITIES
  0
LINE
  5
46
100
AcDbEntity
  8
0
  6
DASHDOT
 62
               4
100
AcDbLine
 10
445.38482585091663
 20
1141.120598322058
 30
0.0
 11
445.38482585091663
 21
216.12059832205875
 31
0.0
  0
LINE
  5
47
100
AcDbEntity
  8
0
  6
DASHDOT
 62
               4
100
AcDbLine
 10
95.384825850916741
 20
891.12059832205864
 30
0.0
 11
1221.3848258509165
 21
891.12059832205864
 31
0.0
  0
LINE
  5
48
100
AcDbEntity
  8
0
  6
Continuous
 62
               6
100
AcDbLine
 10
95.384825850916741
 20
876.12059832205887
 30
0.0
 11
820.38482585091663
 21
876.12059832205887
 31
0.0
  0
LINE
  5
49
100
AcDbEntity
  8
0
  6
Continuous
 62
               6
100
AcDbLine
 10
695.38482585091663
 20
726.12059832205864
 30
0.0
 11
820.38482585091663
 21
726.12059832205864
 31
0.0
  0
LINE
  5
4A
100
AcDbEntity
  8
0
  6
Continuous
 62
               6
100
AcDbLine
 10
695.38482585091663
 20
726.12059832205864
 30
0.0
 11
695.38482585091663
 21
491.12059832205887
 31
0.0
  0
LINE
  5
4B
100
AcDbEntity
  8
0
  6
DASHDOT
 62
               4
100
AcDbLine
 10
895.38482585091663
 20
1141.120598322058
 30
0.0
 11
895.38482585091663
 21
286.12059832205864
 31
0.0
  0
LINE
  5
4C
100
AcDbEntity
  8
0
  6
Continuous
 62
               7
100
AcDbLine
 10
845.38482585091663
 20
601.12059832205887
 30
0.0
 11
845.38482585091663
 21
1141.120598322058
 31
0.0
  0
LINE
  5
4D
100
AcDbEntity
  8
0
  6
Continuous
 62
               7
100
AcDbLine
 10
945.38482585091663
 20
1141.120598322058
 30
0.0
 11
945.38482585091663
 21
591.12059832205887
 31
0.0
  0
LINE
  5
4E
100
AcDbEntity
  8
0
  6
Continuous
 62
               6
100
AcDbLine
 10
820.38482585091663
 20
876.12059832205887
 30
0.0
 11
820.38482585091663
 21
726.12059832205864
 31
0.0
  0
LINE
  5
4F
100
AcDbEntity
  8
0
  6
Continuous
 62
               7
100
AcDbLine
 10
935.38482585091663
 20
591.12059832205887
 30
0.0
 11
855.38482585091663
 21
591.12059832205887
 31
0.0
  0
LINE
  5
50
100
AcDbEntity
  8
0
  6
Continuous
 62
               7
100
AcDbLine
 10
965.38482585091663
 20
1141.120598322058
 30
0.0
 11
965.38482585091663
 21
458.12059870091582
 31
0.0
  0
LINE
  5
51
100
AcDbEntity
  8
0
  6
Continuous
 62
               7
100
AcDbLine
 10
971.38482585091663
 20
1141.120598322058
 30
0.0
 11
971.38482585091663
 21
458.12059870091582
 31
0.0
  0
LINE
  5
52
100
AcDbEntity
  8
0
  6
Continuous
 62
               7
100
AcDbLine
 10
945.38482585091663
 20
591.12059832205887
 30
0.0
 11
965.38482585091663
 21
591.12059832205887
 31
0.0
  0
LINE
  5
53
100
AcDbEntity
  8
0
  6
Continuous
 62
               7
100
AcDbLine
 10
845.38482585091663
 20
601.12059832205887
 30
0.0
 11
855.38482585091663
 21
591.12059832205887
 31
0.0
  0
LINE
  5
54
100
AcDbEntity
  8
0
  6
Continuous
 62
               7
100
AcDbLine
 10
935.38482585091663
 20
591.12059832205887
 30
0.0
 11
945.38482585091663
 21
601.12059832205887
 31
0.0
  0
LINE
  5
55
100
AcDbEntity
  8
0
  6
Continuous
 62
               6
100
AcDbLine
 10
345.38482585091663
 20
791.12059832205887
 30
0.0
 11
545.38482585091663
 21
791.12059832205887
 31
0.0
  0
LINE
  5
56
100
AcDbEntity
  8
0
  6
Continuous
 62
               6
100
AcDbLine
 10
545.38482585091663
 20
791.12059832205887
 30
0.0
 11
545.38482585091663
 21
779.12059832205887
 31
0.0
  0
LINE
  5
57
100
AcDbEntity
  8
0
  6
Continuous
 62
               6
100
AcDbLine
 10
545.38482585091663
 20
591.12059832205887
 30
0.0
 11
345.38482585091663
 21
591.12059832205887
 31
0.0
  0
LINE
  5
58
100
AcDbEntity
  8
0
  6
Continuous
 62
               6
100
AcDbLine
 10
345.38482585091663
 20
591.12059832205887
 30
0.0
 11
345.38482585091663
 21
603.12059832205887
 31
0.0
  0
LINE
  5
59
100
AcDbEntity
  8
0
  6
Continuous
 62
               6
100
AcDbLine
 10
462.38482585091663
 20
603.12059832205887
 30
0.0
 11
545.38482585091663
 21
603.12059832205887
 31
0.0
  0
LINE
  5
5A
100
AcDbEntity
  8
0
  6
Continuous
 62
               6
100
AcDbLine
 10
428.38482585091663
 20
779.12059832205887
 30
0.0
 11
345.38482585091663
 21
779.12059832205887
 31
0.0
  0
LINE
  5
5B
100
AcDbEntity
  8
0
  6
Continuous
 62
               6
100
AcDbLine
 10
441.38482585091663
 20
766.12059832205887
 30
0.0
 11
441.38482585091663
 21
616.12059832205887
 31
0.0
  0
LINE
  5
5C
100
AcDbEntity
  8
0
  6
Continuous
 62
               6
100
AcDbLine
 10
449.38482585091663
 20
766.12059832205887
 30
0.0
 11
449.38482585091663
 21
616.12059832205887
 31
0.0
  0
LINE
  5
5D
100
AcDbEntity
  8
0
  6
Continuous
 62
               6
100
AcDbLine
 10
428.38482585091663
 20
603.12059832205887
 30
0.0
 11
345.38482585091663
 21
603.12059832205887
 31
0.0
  0
LINE
  5
5E
100
AcDbEntity
  8
0
  6
Continuous
 62
               6
100
AcDbLine
 10
462.38482585091663
 20
779.12059832205887
 30
0.0
 11
545.38482585091663
 21
779.12059832205887
 31
0.0
  0
LINE
  5
5F
100
AcDbEntity
  8
0
  6
Continuous
 62
               6
100
AcDbLine
 10
545.38482585091663
 20
603.12059832205887
 30
0.0
 11
545.38482585091663
 21
591.12059832205887
 31
0.0
  0
LINE
  5
60
100
AcDbEntity
  8
0
  6
Continuous
 62
               6
100
AcDbLine
 10
345.38482585091663
 20
779.12059832205887
 30
0.0
 11
345.38482585091663
 21
791.12059832205887
 31
0.0
  0
LINE
  5
61
100
AcDbEntity
  8
0
  6
Continuous
 62
               6
100
AcDbLine
 10
820.38482585091663
 20
829.72449525416596
 30
0.0
 11
716.78092891880954
 21
726.12059832205864
 31
0.0
  0
LINE
  5
62
100
AcDbEntity
  8
0
  6
Continuous
 62
               6
100
AcDbLine
 10
695.38482585091663
 20
704.72449525416596
 30
0.0
 11
426.78092891880954
 21
436.12059832205887
 31
0.0
  0
LINE
  5
63
100
AcDbEntity
  8
0
  6
Continuous
 62
               6
100
AcDbLine
 10
820.38482585091663
 20
836.79556306603149
 30
0.0
 11
709.70986110694378
 21
726.12059832205864
 31
0.0
  0
LINE
  5
64
100
AcDbEntity
  8
0
  6
Continuous
 62
               6
100
AcDbLine
 10
695.38482585091663
 20
711.79556306603149
 30
0.0
 11
419.709861106944
 21
436.12059832205887
 31
0.0
  0
LINE
  5
65
100
AcDbEntity
  8
0
  6
Continuous
 62
               6
100
AcDbLine
 10
820.38482585091663
 20
843.86663087789702
 30
0.0
 11
702.63879329507847
 21
726.12059832205864
 31
0.0
  0
LINE
  5
66
100
AcDbEntity
  8
0
  6
Continuous
 62
               6
100
AcDbLine
 10
654.64889456284516
 20
876.12059832205887
 30
0.0
 11
232.51686020688078
 21
453.9885639660946
 31
0.0
  0
LINE
  5
67
100
AcDbEntity
  8
0
  6
Continuous
 62
               6
100
AcDbLine
 10
647.57782675097963
 20
876.12059832205887
 30
0.0
 11
228.98132630094824
 21
457.52409787202737
 31
0.0
  0
LINE
  5
68
100
AcDbEntity
  8
0
  6
Continuous
 62
               6
100
AcDbLine
 10
640.50675893911432
 20
876.12059832205887
 30
0.0
 11
225.44579239501536
 21
461.05963177796002
 31
0.0
  0
LINE
  5
69
100
AcDbEntity
  8
0
  6
Continuous
 62
               6
100
AcDbLine
 10
95.384825850916741
 20
536.05963177796002
 30
0.0
 11
435.44579239501525
 21
876.12059832205887
 31
0.0
  0
LINE
  5
6A
100
AcDbEntity
  8
0
  6
Continuous
 62
               6
100
AcDbLine
 10
428.37472458314994
 20
876.12059832205887
 30
0.0
 11
95.384825850916741
 21
543.13069958982555
 31
0.0
  0
LINE
  5
6B
100
AcDbEntity
  8
0
  6
DASHED
 62
               4
100
AcDbLine
 10
620.38482585091663
 20
493.12059832205887
 30
0.0
 11
620.38482585091663
 21
491.12059832205887
 31
0.0
  0
LINE
  5
6C
100
AcDbEntity
  8
0
  6
DASHED
 62
               4
100
AcDbLine
 10
693.38482585091663
 20
566.12059832205887
 30
0.0
 11
695.38482585091663
 21
566.12059832205887
 31
0.0
  0
LINE
  5
6D
100
AcDbEntity
  8
0
  6
DASHED
 62
               4
100
AcDbLine
 10
695.38482585091663
 20
566.12059832205887
 30
0.0
 11
695.38482585091663
 21
491.12059832205887
 31
0.0
  0
LINE
  5
6E
100
AcDbEntity
  8
0
  6
DASHED
 62
               4
100
AcDbLine
 10
695.38482585091663
 20
491.12059832205887
 30
0.0
 11
620.38482585091663
 21
491.12059832205887
 31
0.0
  0
LINE
  5
6F
100
AcDbEntity
  8
0
  6
DASHED
 62
               4
100
AcDbLine
 10
689.38482585091663
 20
562.12059832205887
 30
0.0
 11
689.38482585091663
 21
505.62059832205887
 31
0.0
  0
LINE
  5
70
100
AcDbEntity
  8
0
  6
DASHED
 62
               4
100
AcDbLine
 10
624.38482585091663
 20
497.12059832205887
 30
0.0
 11
680.88482585091663
 21
497.12059832205887
 31
0.0
  0
LINE
  5
71
100
AcDbEntity
  8
0
  6
Continuous
 62
               7
100
AcDbLine
 10
945.38482585091663
 20
756.80602327129691
 30
0.0
 11
845.38482585091663
 21
856.80602327129691
 31
0.0
  0
LINE
  5
72
100
AcDbEntity
  8
0
  6
Continuous
 62
               7
100
AcDbLine
 10
945.38482585091663
 20
770.94815889502775
 30
0.0
 11
845.38482585091663
 21
870.94815889502752
 31
0.0
  0
LINE
  5
73
100
AcDbEntity
  8
0
  6
Continuous
 62
               7
100
AcDbLine
 10
945.38482585091663
 20
1039.6487357459159
 30
0.0
 11
845.38482585091663
 21
1139.6487357459159
 31
0.0
  0
LINE
  5
74
100
AcDbEntity
  8
0
  6
Continuous
 62
               7
100
AcDbLine
 10
945.38482585091663
 20
1053.7908713696468
 30
0.0
 11
858.05509889850453
 21
1141.120598322058
 31
0.0
  0
LINE
  5
75
100
AcDbEntity
  8
0
  6
Continuous
 62
               7
100
AcDbLine
 10
965.38482585091663
 20
592.8868334134304
 30
0.0
 11
963.6185907595451
 21
591.12059832205887
 31
0.0
  0
LINE
  5
76
100
AcDbEntity
  8
0
  6
Continuous
 62
               7
100
AcDbLine
 10
965.38482585091663
 20
599.9579012252957
 30
0.0
 11
956.54752294767979
 21
591.12059832205887
 31
0.0
  0
LINE
  5
77
100
AcDbEntity
  8
0
  6
Continuous
 62
               7
100
AcDbLine
 10
965.38482585091663
 20
607.02896903716123
 30
0.0
 11
949.47645513581449
 21
591.12059832205887
 31
0.0
  0
LINE
  5
78
100
AcDbEntity
  8
0
  6
Continuous
 62
               7
100
AcDbLine
 10
965.38482585091663
 20
614.10003684902676
 30
0.0
 11
945.38482585091663
 21
594.10003684902676
 31
0.0
  0
LINE
  5
79
100
AcDbEntity
  8
0
  6
Continuous
 62
               7
100
AcDbLine
 10
965.38482585091663
 20
621.1711046608923
 30
0.0
 11
945.38482585091663
 21
601.1711046608923
 31
0.0
  0
LINE
  5
7A
100
AcDbEntity
  8
0
  6
Continuous
 62
               7
100
AcDbLine
 10
965.38482585091663
 20
628.2421724727576
 30
0.0
 11
945.38482585091663
 21
608.2421724727576
 31
0.0
  0
LINE
  5
7B
100
AcDbEntity
  8
0
  6
Continuous
 62
               7
100
AcDbLine
 10
965.38482585091663
 20
635.31324028462336
 30
0.0
 11
945.38482585091663
 21
615.31324028462313
 31
0.0
  0
LINE
  5
7C
100
AcDbEntity
  8
0
  6
Continuous
 62
               7
100
AcDbLine
 10
965.38482585091663
 20
642.38430809648867
 30
0.0
 11
945.38482585091663
 21
622.38430809648867
 31
0.0
  0
LINE
  5
7D
100
AcDbEntity
  8
0
  6
Continuous
 62
               7
100
AcDbLine
 10
965.38482585091663
 20
649.4553759083542
 30
0.0
 11
945.38482585091663
 21
629.4553759083542
 31
0.0
  0
LINE
  5
7E
100
AcDbEntity
  8
0
  6
Continuous
 62
               7
100
AcDbLine
 10
965.38482585091663
 20
656.52644372021973
 30
0.0
 11
945.38482585091663
 21
636.52644372021973
 31
0.0
  0
LINE
  5
7F
100
AcDbEntity
  8
0
  6
Continuous
 62
               7
100
AcDbLine
 10
965.38482585091663
 20
663.59751153208504
 30
0.0
 11
945.38482585091663
 21
643.59751153208504
 31
0.0
  0
LINE
  5
80
100
AcDbEntity
  8
0
  6
Continuous
 62
               7
100
AcDbLine
 10
965.38482585091663
 20
670.66857934395057
 30
0.0
 11
945.38482585091663
 21
650.66857934395057
 31
0.0
  0
LINE
  5
81
100
AcDbEntity
  8
0
  6
Continuous
 62
               7
100
AcDbLine
 10
965.38482585091663
 20
677.73964715581587
 30
0.0
 11
945.38482585091663
 21
657.73964715581587
 31
0.0
  0
LINE
  5
82
100
AcDbEntity
  8
0
  6
Continuous
 62
               7
100
AcDbLine
 10
965.38482585091663
 20
684.81071496768141
 30
0.0
 11
945.38482585091663
 21
664.81071496768141
 31
0.0
  0
LINE
  5
83
100
AcDbEntity
  8
0
  6
Continuous
 62
               7
100
AcDbLine
 10
965.38482585091663
 20
691.88178277954694
 30
0.0
 11
945.38482585091663
 21
671.88178277954694
 31
0.0
  0
LINE
  5
84
100
AcDbEntity
  8
0
  6
Continuous
 62
               7
100
AcDbLine
 10
965.38482585091663
 20
698.95285059141247
 30
0.0
 11
945.38482585091663
 21
678.95285059141247
 31
0.0
  0
LINE
  5
85
100
AcDbEntity
  8
0
  6
Continuous
 62
               7
100
AcDbLine
 10
965.38482585091663
 20
706.023918403278
 30
0.0
 11
945.38482585091663
 21
686.023918403278
 31
0.0
  0
LINE
  5
86
100
AcDbEntity
  8
0
  6
Continuous
 62
               7
100
AcDbLine
 10
965.38482585091663
 20
713.09498621514354
 30
0.0
 11
945.38482585091663
 21
693.09498621514331
 31
0.0
  0
LINE
  5
87
100
AcDbEntity
  8
0
  6
Continuous
 62
               7
100
AcDbLine
 10
965.38482585091663
 20
720.16605402700884
 30
0.0
 11
945.38482585091663
 21
700.16605402700884
 31
0.0
  0
LINE
  5
88
100
AcDbEntity
  8
0
  6
Continuous
 62
               7
100
AcDbLine
 10
965.38482585091663
 20
727.23712183887437
 30
0.0
 11
945.38482585091663
 21
707.23712183887437
 31
0.0
  0
LINE
  5
89
100
AcDbEntity
  8
0
  6
Continuous
 62
               7
100
AcDbLine
 10
965.38482585091663
 20
734.30818965073991
 30
0.0
 11
945.38482585091663
 21
714.30818965073991
 31
0.0
  0
LINE
  5
8A
100
AcDbEntity
  8
0
  6
Continuous
 62
               7
100
AcDbLine
 10
965.38482585091663
 20
741.37925746260521
 30
0.0
 11
945.38482585091663
 21
721.37925746260544
 31
0.0
  0
LINE
  5
8B
100
AcDbEntity
  8
0
  6
Continuous
 62
               7
100
AcDbLine
 10
965.38482585091663
 20
748.45032527447074
 30
0.0
 11
945.38482585091663
 21
728.45032527447074
 31
0.0
  0
LINE
  5
8C
100
AcDbEntity
  8
0
  6
Continuous
 62
               7
100
AcDbLine
 10
965.38482585091663
 20
755.52139308633627
 30
0.0
 11
945.38482585091663
 21
735.52139308633627
 31
0.0
  0
LINE
  5
8D
100
AcDbEntity
  8
0
  6
Continuous
 62
               7
100
AcDbLine
 10
965.38482585091663
 20
762.59246089820158
 30
0.0
 11
945.38482585091663
 21
742.59246089820181
 31
0.0
  0
LINE
  5
8E
100
AcDbEntity
  8
0
  6
Continuous
 62
               7
100
AcDbLine
 10
965.38482585091663
 20
769.66352871006711
 30
0.0
 11
945.38482585091663
 21
749.66352871006711
 31
0.0
  0
LINE
  5
8F
100
AcDbEntity
  8
0
  6
Continuous
 62
               7
100
AcDbLine
 10
965.38482585091663
 20
776.73459652193287
 30
0.0
 11
945.38482585091663
 21
756.73459652193287
 31
0.0
  0
LINE
  5
90
100
AcDbEntity
  8
0
  6
Continuous
 62
               7
100
AcDbLine
 10
965.38482585091663
 20
783.8056643337984
 30
0.0
 11
945.38482585091663
 21
763.8056643337984
 31
0.0
  0
LINE
  5
91
100
AcDbEntity
  8
0
  6
Continuous
 62
               7
100
AcDbLine
 10
965.38482585091663
 20
790.87673214566348
 30
0.0
 11
945.38482585091663
 21
770.87673214566348
 31
0.0
  0
LINE
  5
92
100
AcDbEntity
  8
0
  6
Continuous
 62
               7
100
AcDbLine
 10
965.38482585091663
 20
797.94779995752924
 30
0.0
 11
945.38482585091663
 21
777.94779995752924
 31
0.0
  0
LINE
  5
93
100
AcDbEntity
  8
0
  6
Continuous
 62
               7
100
AcDbLine
 10
965.38482585091663
 20
805.01886776939455
 30
0.0
 11
945.38482585091663
 21
785.01886776939455
 31
0.0
  0
LINE
  5
94
100
AcDbEntity
  8
0
  6
Continuous
 62
               7
100
AcDbLine
 10
965.38482585091663
 20
812.08993558126008
 30
0.0
 11
945.38482585091663
 21
792.08993558126008
 31
0.0
  0
LINE
  5
95
100
AcDbEntity
  8
0
  6
Continuous
 62
               7
100
AcDbLine
 10
965.38482585091663
 20
819.16100339312561
 30
0.0
 11
945.38482585091663
 21
799.16100339312561
 31
0.0
  0
LINE
  5
96
100
AcDbEntity
  8
0
  6
Continuous
 62
               7
100
AcDbLine
 10
965.38482585091663
 20
826.23207120499092
 30
0.0
 11
945.38482585091663
 21
806.23207120499114
 31
0.0
  0
LINE
  5
97
100
AcDbEntity
  8
0
  6
Continuous
 62
               7
100
AcDbLine
 10
965.38482585091663
 20
833.30313901685645
 30
0.0
 11
945.38482585091663
 21
813.30313901685645
 31
0.0
  0
LINE
  5
98
100
AcDbEntity
  8
0
  6
Continuous
 62
               7
100
AcDbLine
 10
965.38482585091663
 20
840.37420682872198
 30
0.0
 11
945.38482585091663
 21
820.37420682872198
 31
0.0
  0
LINE
  5
99
100
AcDbEntity
  8
0
  6
Continuous
 62
               7
100
AcDbLine
 10
965.38482585091663
 20
847.44527464058751
 30
0.0
 11
945.38482585091663
 21
827.44527464058751
 31
0.0
  0
LINE
  5
9A
100
AcDbEntity
  8
0
  6
Continuous
 62
               7
100
AcDbLine
 10
965.38482585091663
 20
854.51634245245305
 30
0.0
 11
945.38482585091663
 21
834.51634245245282
 31
0.0
  0
LINE
  5
9B
100
AcDbEntity
  8
0
  6
Continuous
 62
               7
100
AcDbLine
 10
965.38482585091663
 20
861.58741026431835
 30
0.0
 11
945.38482585091663
 21
841.58741026431835
 31
0.0
  0
LINE
  5
9C
100
AcDbEntity
  8
0
  6
Continuous
 62
               7
100
AcDbLine
 10
965.38482585091663
 20
868.65847807618388
 30
0.0
 11
945.38482585091663
 21
848.65847807618388
 31
0.0
  0
LINE
  5
9D
100
AcDbEntity
  8
0
  6
Continuous
 62
               7
100
AcDbLine
 10
965.38482585091663
 20
875.72954588804919
 30
0.0
 11
945.38482585091663
 21
855.72954588804919
 31
0.0
  0
LINE
  5
9E
100
AcDbEntity
  8
0
  6
Continuous
 62
               7
100
AcDbLine
 10
965.38482585091663
 20
882.80061369991495
 30
0.0
 11
945.38482585091663
 21
862.80061369991472
 31
0.0
  0
LINE
  5
9F
100
AcDbEntity
  8
0
  6
Continuous
 62
               7
100
AcDbLine
 10
965.38482585091663
 20
889.87168151178025
 30
0.0
 11
945.38482585091663
 21
869.87168151178025
 31
0.0
  0
LINE
  5
A0
100
AcDbEntity
  8
0
  6
Continuous
 62
               7
100
AcDbLine
 10
965.38482585091663
 20
896.94274932364556
 30
0.0
 11
945.38482585091663
 21
876.94274932364578
 31
0.0
  0
LINE
  5
A1
100
AcDbEntity
  8
0
  6
Continuous
 62
               7
100
AcDbLine
 10
965.38482585091663
 20
904.01381713551132
 30
0.0
 11
945.38482585091663
 21
884.01381713551109
 31
0.0
  0
LINE
  5
A2
100
AcDbEntity
  8
0
  6
Continuous
 62
               7
100
AcDbLine
 10
965.38482585091663
 20
911.08488494737662
 30
0.0
 11
945.38482585091663
 21
891.08488494737685
 31
0.0
  0
LINE
  5
A3
100
AcDbEntity
  8
0
  6
Continuous
 62
               7
100
AcDbLine
 10
965.38482585091663
 20
918.15595275924215
 30
0.0
 11
945.38482585091663
 21
898.15595275924238
 31
0.0
  0
LINE
  5
A4
100
AcDbEntity
  8
0
  6
Continuous
 62
               7
100
AcDbLine
 10
965.38482585091663
 20
925.22702057110769
 30
0.0
 11
945.38482585091663
 21
905.22702057110769
 31
0.0
  0
LINE
  5
A5
100
AcDbEntity
  8
0
  6
Continuous
 62
               7
100
AcDbLine
 10
965.38482585091663
 20
932.29808838297322
 30
0.0
 11
945.38482585091663
 21
912.29808838297322
 31
0.0
  0
LINE
  5
A6
100
AcDbEntity
  8
0
  6
Continuous
 62
               7
100
AcDbLine
 10
965.38482585091663
 20
939.36915619483875
 30
0.0
 11
945.38482585091663
 21
919.36915619483875
 31
0.0
  0
LINE
  5
A7
100
AcDbEntity
  8
0
  6
Continuous
 62
               7
100
AcDbLine
 10
960.06520016627144
 20
941.12059832205864
 30
0.0
 11
945.38482585091663
 21
926.44022400670428
 31
0.0
  0
LINE
  5
A8
100
AcDbEntity
  8
0
  6
Continuous
 62
               7
100
AcDbLine
 10
952.99413235440613
 20
941.12059832205864
 30
0.0
 11
945.38482585091663
 21
933.51129181856982
 31
0.0
  0
LINE
  5
A9
100
AcDbEntity
  8
0
  6
Continuous
 62
               7
100
AcDbLine
 10
945.9230645425406
 20
941.12059832205864
 30
0.0
 11
945.38482585091663
 21
940.58235963043489
 31
0.0
  0
LINE
  5
AA
100
AcDbEntity
  8
0
  6
Continuous
 62
               7
100
AcDbLine
 10
948.43569112724879
 20
591.12059832205887
 30
0.0
 11
945.38482585091663
 21
594.1714635983908
 31
0.0
  0
LINE
  5
AB
100
AcDbEntity
  8
0
  6
Continuous
 62
               7
100
AcDbLine
 10
955.50675893911455
 20
591.12059832205887
 30
0.0
 11
945.38482585091663
 21
601.24253141025633
 31
0.0
  0
LINE
  5
AC
100
AcDbEntity
  8
0
  6
Continuous
 62
               7
100
AcDbLine
 10
962.57782675098008
 20
591.12059832205887
 30
0.0
 11
945.38482585091663
 21
608.31359922212187
 31
0.0
  0
LINE
  5
AD
100
AcDbEntity
  8
0
  6
Continuous
 62
               7
100
AcDbLine
 10
965.38482585091663
 20
595.3846670339874
 30
0.0
 11
945.38482585091663
 21
615.3846670339874
 31
0.0
  0
LINE
  5
AE
100
AcDbEntity
  8
0
  6
Continuous
 62
               7
100
AcDbLine
 10
965.38482585091663
 20
602.4557348458527
 30
0.0
 11
945.38482585091663
 21
622.4557348458527
 31
0.0
  0
LINE
  5
AF
100
AcDbEntity
  8
0
  6
Continuous
 62
               7
100
AcDbLine
 10
965.38482585091663
 20
609.52680265771846
 30
0.0
 11
945.38482585091663
 21
629.52680265771846
 31
0.0
  0
LINE
  5
B0
100
AcDbEntity
  8
0
  6
Continuous
 62
               7
100
AcDbLine
 10
965.38482585091663
 20
616.59787046958377
 30
0.0
 11
945.38482585091663
 21
636.59787046958377
 31
0.0
  0
LINE
  5
B1
100
AcDbEntity
  8
0
  6
Continuous
 62
               7
100
AcDbLine
 10
965.38482585091663
 20
623.6689382814493
 30
0.0
 11
945.38482585091663
 21
643.6689382814493
 31
0.0
  0
LINE
  5
B2
100
AcDbEntity
  8
0
  6
Continuous
 62
               7
100
AcDbLine
 10
965.38482585091663
 20
630.74000609331461
 30
0.0
 11
945.38482585091663
 21
650.74000609331483
 31
0.0
  0
LINE
  5
B3
100
AcDbEntity
  8
0
  6
Continuous
 62
               7
100
AcDbLine
 10
965.38482585091663
 20
637.81107390518014
 30
0.0
 11
945.38482585091663
 21
657.81107390518014
 31
0.0
  0
LINE
  5
B4
100
AcDbEntity
  8
0
  6
Continuous
 62
               7
100
AcDbLine
 10
965.38482585091663
 20
644.88214171704567
 30
0.0
 11
945.38482585091663
 21
664.88214171704567
 31
0.0
  0
LINE
  5
B5
100
AcDbEntity
  8
0
  6
Continuous
 62
               7
100
AcDbLine
 10
965.38482585091663
 20
651.9532095289112
 30
0.0
 11
945.38482585091663
 21
671.9532095289112
 31
0.0
  0
LINE
  5
B6
100
AcDbEntity
  8
0
  6
Continuous
 62
               7
100
AcDbLine
 10
965.38482585091663
 20
659.02427734077673
 30
0.0
 11
945.38482585091663
 21
679.02427734077673
 31
0.0
  0
LINE
  5
B7
100
AcDbEntity
  8
0
  6
Continuous
 62
               7
100
AcDbLine
 10
965.38482585091663
 20
666.09534515264204
 30
0.0
 11
945.38482585091663
 21
686.09534515264227
 31
0.0
  0
LINE
  5
B8
100
AcDbEntity
  8
0
  6
Continuous
 62
               7
100
AcDbLine
 10
965.38482585091663
 20
673.16641296450757
 30
0.0
 11
945.38482585091663
 21
693.16641296450757
 31
0.0
  0
LINE
  5
B9
100
AcDbEntity
  8
0
  6
Continuous
 62
               7
100
AcDbLine
 10
965.38482585091663
 20
680.2374807763731
 30
0.0
 11
945.38482585091663
 21
700.23748077637333
 31
0.0
  0
LINE
  5
BA
100
AcDbEntity
  8
0
  6
Continuous
 62
               7
100
AcDbLine
 10
965.38482585091663
 20
687.30854858823841
 30
0.0
 11
945.38482585091663
 21
707.30854858823841
 31
0.0
  0
LINE
  5
BB
100
AcDbEntity
  8
0
  6
Continuous
 62
               7
100
AcDbLine
 10
965.38482585091663
 20
694.37961640010417
 30
0.0
 11
945.38482585091663
 21
714.37961640010417
 31
0.0
  0
LINE
  5
BC
100
AcDbEntity
  8
0
  6
Continuous
 62
               7
100
AcDbLine
 10
965.38482585091663
 20
701.45068421196947
 30
0.0
 11
945.38482585091663
 21
721.45068421196947
 31
0.0
  0
LINE
  5
BD
100
AcDbEntity
  8
0
  6
Continuous
 62
               7
100
AcDbLine
 10
965.38482585091663
 20
708.52175202383523
 30
0.0
 11
945.38482585091663
 21
728.52175202383501
 31
0.0
  0
LINE
  5
BE
100
AcDbEntity
  8
0
  6
Continuous
 62
               7
100
AcDbLine
 10
965.38482585091663
 20
715.59281983570054
 30
0.0
 11
945.38482585091663
 21
735.59281983570054
 31
0.0
  0
LINE
  5
BF
100
AcDbEntity
  8
0
  6
Continuous
 62
               7
100
AcDbLine
 10
965.38482585091663
 20
722.66388764756607
 30
0.0
 11
945.38482585091663
 21
742.66388764756584
 31
0.0
  0
LINE
  5
C0
100
AcDbEntity
  8
0
  6
Continuous
 62
               7
100
AcDbLine
 10
965.38482585091663
 20
729.73495545943138
 30
0.0
 11
945.38482585091663
 21
749.73495545943138
 31
0.0
  0
LINE
  5
C1
100
AcDbEntity
  8
0
  6
Continuous
 62
               7
100
AcDbLine
 10
965.38482585091663
 20
736.80602327129691
 30
0.0
 11
945.38482585091663
 21
756.80602327129691
 31
0.0
  0
LINE
  5
C2
100
AcDbEntity
  8
0
  6
Continuous
 62
               7
100
AcDbLine
 10
965.38482585091663
 20
743.87709108316244
 30
0.0
 11
945.38482585091663
 21
763.87709108316221
 31
0.0
  0
LINE
  5
C3
100
AcDbEntity
  8
0
  6
Continuous
 62
               7
100
AcDbLine
 10
965.38482585091663
 20
750.94815889502775
 30
0.0
 11
945.38482585091663
 21
770.94815889502775
 31
0.0
  0
LINE
  5
C4
100
AcDbEntity
  8
0
  6
Continuous
 62
               7
100
AcDbLine
 10
965.38482585091663
 20
758.01922670689328
 30
0.0
 11
945.38482585091663
 21
778.01922670689328
 31
0.0
  0
LINE
  5
C5
100
AcDbEntity
  8
0
  6
Continuous
 62
               7
100
AcDbLine
 10
965.38482585091663
 20
765.09029451875904
 30
0.0
 11
945.38482585091663
 21
785.09029451875904
 31
0.0
  0
LINE
  5
C6
100
AcDbEntity
  8
0
  6
Continuous
 62
               7
100
AcDbLine
 10
965.38482585091663
 20
772.16136233062412
 30
0.0
 11
945.38482585091663
 21
792.16136233062412
 31
0.0
  0
LINE
  5
C7
100
AcDbEntity
  8
0
  6
Continuous
 62
               7
100
AcDbLine
 10
965.38482585091663
 20
779.23243014248965
 30
0.0
 11
945.38482585091663
 21
799.23243014248965
 31
0.0
  0
LINE
  5
C8
100
AcDbEntity
  8
0
  6
Continuous
 62
               7
100
AcDbLine
 10
965.38482585091663
 20
786.30349795435518
 30
0.0
 11
945.38482585091663
 21
806.30349795435518
 31
0.0
  0
LINE
  5
C9
100
AcDbEntity
  8
0
  6
Continuous
 62
               7
100
AcDbLine
 10
965.38482585091663
 20
793.37456576622071
 30
0.0
 11
945.38482585091663
 21
813.37456576622071
 31
0.0
  0
LINE
  5
CA
100
AcDbEntity
  8
0
  6
Continuous
 62
               7
100
AcDbLine
 10
965.38482585091663
 20
800.44563357808624
 30
0.0
 11
945.38482585091663
 21
820.44563357808624
 31
0.0
  0
LINE
  5
CB
100
AcDbEntity
  8
0
  6
Continuous
 62
               7
100
AcDbLine
 10
965.38482585091663
 20
807.51670138995178
 30
0.0
 11
945.38482585091663
 21
827.51670138995178
 31
0.0
  0
LINE
  5
CC
100
AcDbEntity
  8
0
  6
Continuous
 62
               7
100
AcDbLine
 10
965.38482585091663
 20
814.58776920181708
 30
0.0
 11
945.38482585091663
 21
834.58776920181708
 31
0.0
  0
LINE
  5
CD
100
AcDbEntity
  8
0
  6
Continuous
 62
               7
100
AcDbLine
 10
965.38482585091663
 20
821.65883701368261
 30
0.0
 11
945.38482585091663
 21
841.65883701368284
 31
0.0
  0
LINE
  5
CE
100
AcDbEntity
  8
0
  6
Continuous
 62
               7
100
AcDbLine
 10
965.38482585091663
 20
828.72990482554815
 30
0.0
 11
945.38482585091663
 21
848.72990482554815
 31
0.0
  0
LINE
  5
CF
100
AcDbEntity
  8
0
  6
Continuous
 62
               7
100
AcDbLine
 10
965.38482585091663
 20
835.80097263741368
 30
0.0
 11
945.38482585091663
 21
855.80097263741368
 31
0.0
  0
LINE
  5
D0
100
AcDbEntity
  8
0
  6
Continuous
 62
               7
100
AcDbLine
 10
965.38482585091663
 20
842.87204044927898
 30
0.0
 11
945.38482585091663
 21
862.87204044927898
 31
0.0
  0
LINE
  5
D1
100
AcDbEntity
  8
0
  6
Continuous
 62
               7
100
AcDbLine
 10
965.38482585091663
 20
849.94310826114474
 30
0.0
 11
945.38482585091663
 21
869.94310826114452
 31
0.0
  0
LINE
  5
D2
100
AcDbEntity
  8
0
  6
Continuous
 62
               7
100
AcDbLine
 10
965.38482585091663
 20
857.01417607301005
 30
0.0
 11
945.38482585091663
 21
877.01417607300982
 31
0.0
  0
LINE
  5
D3
100
AcDbEntity
  8
0
  6
Continuous
 62
               7
100
AcDbLine
 10
965.38482585091663
 20
864.08524388487535
 30
0.0
 11
945.38482585091663
 21
884.08524388487535
 31
0.0
  0
LINE
  5
D4
100
AcDbEntity
  8
0
  6
Continuous
 62
               7
100
AcDbLine
 10
965.38482585091663
 20
871.15631169674089
 30
0.0
 11
945.38482585091663
 21
891.15631169674089
 31
0.0
  0
LINE
  5
D5
100
AcDbEntity
  8
0
  6
Continuous
 62
               7
100
AcDbLine
 10
965.38482585091663
 20
878.22737950860642
 30
0.0
 11
945.38482585091663
 21
898.22737950860642
 31
0.0
  0
LINE
  5
D6
100
AcDbEntity
  8
0
  6
Continuous
 62
               7
100
AcDbLine
 10
965.38482585091663
 20
885.29844732047172
 30
0.0
 11
945.38482585091663
 21
905.29844732047195
 31
0.0
  0
LINE
  5
D7
100
AcDbEntity
  8
0
  6
Continuous
 62
               7
100
AcDbLine
 10
965.38482585091663
 20
892.36951513233748
 30
0.0
 11
945.38482585091663
 21
912.36951513233748
 31
0.0
  0
LINE
  5
D8
100
AcDbEntity
  8
0
  6
Continuous
 62
               7
100
AcDbLine
 10
965.38482585091663
 20
899.44058294420279
 30
0.0
 11
945.38482585091663
 21
919.44058294420279
 31
0.0
  0
LINE
  5
D9
100
AcDbEntity
  8
0
  6
Continuous
 62
               7
100
AcDbLine
 10
965.38482585091663
 20
906.51165075606832
 30
0.0
 11
945.38482585091663
 21
926.51165075606832
 31
0.0
  0
LINE
  5
DA
100
AcDbEntity
  8
0
  6
Continuous
 62
               7
100
AcDbLine
 10
965.38482585091663
 20
913.58271856793363
 30
0.0
 11
945.38482585091663
 21
933.58271856793363
 31
0.0
  0
LINE
  5
DB
100
AcDbEntity
  8
0
  6
Continuous
 62
               7
100
AcDbLine
 10
965.38482585091663
 20
920.65378637979939
 30
0.0
 11
945.38482585091663
 21
940.65378637979939
 31
0.0
  0
LINE
  5
DC
100
AcDbEntity
  8
0
  6
Continuous
 62
               7
100
AcDbLine
 10
965.38482585091663
 20
927.72485419166492
 30
0.0
 11
951.9890817205229
 21
941.12059832205864
 31
0.0
  0
LINE
  5
DD
100
AcDbEntity
  8
0
  6
Continuous
 62
               7
100
AcDbLine
 10
965.38482585091663
 20
934.79592200353022
 30
0.0
 11
959.06014953238821
 21
941.12059832205864
 31
0.0
  0
LINE
  5
DE
100
AcDbEntity
  8
0
  6
Continuous
 62
               6
100
AcDbLine
 10
841.38482585091663
 20
650.12059832205864
 30
0.0
 11
839.38482585091685
 21
650.12059832205864
 31
0.0
  0
LINE
  5
DF
100
AcDbEntity
  8
0
  6
Continuous
 62
               6
100
AcDbLine
 10
904.38482585091663
 20
587.12059832205887
 30
0.0
 11
904.38482585091663
 21
585.12059832205887
 31
0.0
  0
LINE
  5
E0
100
AcDbEntity
  8
0
  6
Continuous
 62
               6
100
AcDbLine
 10
904.38482585091663
 20
585.12059832205887
 30
0.0
 11
839.38482585091685
 21
585.12059832205887
 31
0.0
  0
LINE
  5
E1
100
AcDbEntity
  8
0
  6
Continuous
 62
               6
100
AcDbLine
 10
839.38482585091685
 20
585.12059832205887
 30
0.0
 11
839.38482585091685
 21
650.12059832205864
 31
0.0
  0
LINE
  5
E2
100
AcDbEntity
  8
0
  6
Continuous
 62
               6
100
AcDbLine
 10
845.38482585091663
 20
599.62059832205887
 30
0.0
 11
845.38482585091663
 21
646.12059832205864
 31
0.0
  0
LINE
  5
E3
100
AcDbEntity
  8
0
  6
Continuous
 62
               6
100
AcDbLine
 10
853.88482585091663
 20
591.12059832205887
 30
0.0
 11
900.38482585091708
 21
591.12059832205887
 31
0.0
  0
LINE
  5
E4
100
AcDbEntity
  8
0
  6
Continuous
 62
               6
100
AcDbLine
 10
837.88482585091663
 20
654.12059832205887
 30
0.0
 11
839.38482585091685
 21
654.12059832205887
 31
0.0
  0
LINE
  5
E5
100
AcDbEntity
  8
0
  6
Continuous
 62
               6
100
AcDbLine
 10
789.38482585091663
 20
605.62059832205887
 30
0.0
 11
789.38482585091663
 21
604.12059832205887
 31
0.0
  0
LINE
  5
E6
100
AcDbEntity
  8
0
  6
Continuous
 62
               6
100
AcDbLine
 10
789.38482585091663
 20
604.12059832205887
 30
0.0
 11
839.38482585091685
 21
604.12059832205887
 31
0.0
  0
LINE
  5
E7
100
AcDbEntity
  8
0
  6
Continuous
 62
               6
100
AcDbLine
 10
839.38482585091685
 20
604.12059832205887
 30
0.0
 11
839.38482585091685
 21
654.12059832205887
 31
0.0
  0
LINE
  5
E8
100
AcDbEntity
  8
0
  6
Continuous
 62
               6
100
AcDbLine
 10
833.38482585091663
 20
649.62059832205887
 30
0.0
 11
833.38482585091663
 21
616.62059832205887
 31
0.0
  0
LINE
  5
E9
100
AcDbEntity
  8
0
  6
Continuous
 62
               6
100
AcDbLine
 10
793.88482585091663
 20
610.12059832205887
 30
0.0
 11
826.88482585091685
 21
610.12059832205887
 31
0.0
  0
LINE
  5
EA
100
AcDbEntity
  8
0
  6
Continuous
 62
               6
100
AcDbLine
 10
818.38482585091663
 20
610.12059832205887
 30
0.0
 11
818.38482585091663
 21
660.12059832205887
 31
0.0
  0
LINE
  5
EB
100
AcDbEntity
  8
0
  6
Continuous
 62
               6
100
AcDbLine
 10
720.38482585091663
 20
660.12059832205887
 30
0.0
 11
818.38482585091663
 21
660.12059832205887
 31
0.0
  0
LINE
  5
EC
100
AcDbEntity
  8
0
  6
Continuous
 62
               6
100
AcDbLine
 10
720.38482585091663
 20
610.12059832205887
 30
0.0
 11
720.38482585091663
 21
660.12059832205887
 31
0.0
  0
LINE
  5
ED
100
AcDbEntity
  8
0
  6
Continuous
 62
               6
100
AcDbLine
 10
720.38482585091663
 20
610.12059832205887
 30
0.0
 11
818.38482585091663
 21
610.12059832205887
 31
0.0
  0
LINE
  5
EE
100
AcDbEntity
  8
0
  6
Continuous
 62
               6
100
AcDbLine
 10
720.38482585091663
 20
616.12059832205887
 30
0.0
 11
818.38482585091663
 21
616.12059832205887
 31
0.0
  0
LINE
  5
EF
100
AcDbEntity
  8
0
  6
Continuous
 62
               6
100
AcDbLine
 10
770.38482585091663
 20
608.12059832205955
 30
0.0
 11
770.38482585091663
 21
610.12059832205955
 31
0.0
  0
LINE
  5
F0
100
AcDbEntity
  8
0
  6
Continuous
 62
               6
100
AcDbLine
 10
697.38482585091754
 20
535.12059832205887
 30
0.0
 11
695.38482585091731
 21
535.12059832205887
 31
0.0
  0
LINE
  5
F1
100
AcDbEntity
  8
0
  6
Continuous
 62
               6
100
AcDbLine
 10
695.38482585091731
 20
535.12059832205887
 30
0.0
 11
695.38482585091663
 21
610.12059832205887
 31
0.0
  0
LINE
  5
F2
100
AcDbEntity
  8
0
  6
Continuous
 62
               6
100
AcDbLine
 10
695.38482585091663
 20
610.12059832205887
 30
0.0
 11
770.38482585091663
 21
610.12059832205955
 31
0.0
  0
LINE
  5
F3
100
AcDbEntity
  8
0
  6
Continuous
 62
               6
100
AcDbLine
 10
701.38482585091663
 20
539.12059832205955
 30
0.0
 11
701.38482585091663
 21
595.62059832205887
 31
0.0
  0
LINE
  5
F4
100
AcDbEntity
  8
0
  6
Continuous
 62
               6
100
AcDbLine
 10
766.38482585091663
 20
604.12059832205955
 30
0.0
 11
709.88482585091663
 21
604.12059832205887
 31
0.0
  0
LINE
  5
F5
100
AcDbEntity
  8
0
  6
Continuous
 62
               4
100
AcDbLine
 10
445.38482585091663
 20
1031.1205983220589
 30
0.0
 11
845.38482585091663
 21
1031.1205983220589
 31
0.0
  0
LINE
  5
F6
100
AcDbEntity
  8
0
  6
Continuous
 62
               4
100
AcDbLine
 10
845.38482585091663
 20
1031.1205983220589
 30
0.0
 11
945.38482585091663
 21
1031.1205983220589
 31
0.0
  0
LINE
  5
F7
100
AcDbEntity
  8
0
  6
Continuous
 62
               4
100
AcDbLine
 10
945.38482585091663
 20
1031.1205983220589
 30
0.0
 11
971.38482585091663
 21
1031.1205983220589
 31
0.0
  0
LINE
  5
F8
100
AcDbEntity
  8
0
  6
Continuous
 62
               4
100
AcDbLine
 10
971.38482585091663
 20
1017.1205983220589
 30
0.0
 11
965.38482585091663
 21
1017.1205983220589
 31
0.0
  0
LINE
  5
F9
100
AcDbEntity
  8
0
  6
Continuous
 62
               4
100
AcDbLine
 10
965.38482585091663
 20
1017.1205983220589
 30
0.0
 11
945.38482585091663
 21
1017.1205983220589
 31
0.0
  0
LINE
  5
FA
100
AcDbEntity
  8
0
  6
Continuous
 62
               4
100
AcDbLine
 10
945.38482585091663
 20
1017.1205983220589
 30
0.0
 11
895.38482585091663
 21
1017.1205983220589
 31
0.0
  0
LINE
  5
FB
100
AcDbEntity
  8
0
  6
Continuous
 62
               4
100
AcDbLine
 10
895.38482585091663
 20
1017.1205983220589
 30
0.0
 11
845.38482585091663
 21
1017.1205983220589
 31
0.0
  0
LINE
  5
FC
100
AcDbEntity
  8
0
  6
Continuous
 62
               4
100
AcDbLine
 10
820.38482585091663
 20
880.12059832205887
 30
0.0
 11
820.38482585091663
 21
1019.1205983220589
 31
0.0
  0
LINE
  5
FD
100
AcDbEntity
  8
0
  6
Continuous
 62
               4
100
AcDbLine
 10
845.38482585091663
 20
1017.1205983220589
 30
0.0
 11
820.38482585091663
 21
1017.1205983220589
 31
0.0
  0
LINE
  5
FE
100
AcDbEntity
  8
0
  6
Continuous
 62
               4
100
AcDbLine
 10
489.38482585091663
 20
891.12059832205864
 30
0.0
 11
489.38482585091663
 21
791.12059832205887
 31
0.0
  0
LINE
  5
FF
100
AcDbEntity
  8
0
  6
Continuous
 62
               7
100
AcDbLine
 10
915.38482585091663
 20
681.12059832205887
 30
0.0
 11
945.38482585091663
 21
681.12059832205887
 31
0.0
  0
LINE
  5
100
100
AcDbEntity
  8
0
  6
Continuous
 62
               7
100
AcDbLine
 10
915.38482585091663
 20
636.12059832205864
 30
0.0
 11
945.38482585091663
 21
636.12059832205864
 31
0.0
  0
LINE
  5
101
100
AcDbEntity
  8
0
  6
Continuous
 62
               7
100
AcDbLine
 10
915.38482585091663
 20
681.12059832205887
 30
0.0
 11
915.38482585091663
 21
636.12059832205864
 31
0.0
  0
LINE
  5
102
100
AcDbEntity
  8
0
  6
Continuous
 62
               7
100
AcDbLine
 10
918.38482585091663
 20
678.62059832205887
 30
0.0
 11
918.38482585091663
 21
638.62059832205864
 31
0.0
  0
LINE
  5
103
100
AcDbEntity
  8
0
  6
DASHDOT
 62
               7
100
AcDbLine
 10
818.38482585091663
 20
658.62059832205864
 30
0.0
 11
946.38482585091663
 21
658.62059832205864
 31
0.0
  0
LINE
  5
104
100
AcDbEntity
  8
0
  6
Continuous
 62
               7
100
AcDbLine
 10
930.38482585091663
 20
667.62059832205887
 30
0.0
 11
930.38482585091663
 21
649.62059832205864
 31
0.0
  0
LINE
  5
105
100
AcDbEntity
  8
0
  6
Continuous
 62
               7
100
AcDbLine
 10
918.38482585091663
 20
646.62059832205864
 30
0.0
 11
928.38482585091663
 21
646.62059832205864
 31
0.0
  0
LINE
  5
106
100
AcDbEntity
  8
0
  6
Continuous
 62
               7
100
AcDbLine
 10
918.38482585091663
 20
670.62059832205887
 30
0.0
 11
928.38482585091663
 21
670.62059832205887
 31
0.0
  0
LINE
  5
107
100
AcDbEntity
  8
0
  6
Continuous
 62
               7
100
AcDbLine
 10
915.38482585091663
 20
638.62059832205864
 30
0.0
 11
918.38482585091663
 21
638.62059832205864
 31
0.0
  0
LINE
  5
108
100
AcDbEntity
  8
0
  6
Continuous
 62
               7
100
AcDbLine
 10
915.38482585091663
 20
678.62059832205887
 30
0.0
 11
918.38482585091663
 21
678.62059832205887
 31
0.0
  0
LINE
  5
109
100
AcDbEntity
  8
0
  6
Continuous
 62
               7
100
AcDbLine
 10
928.38482585091663
 20
670.62059832205887
 30
0.0
 11
930.38482585091663
 21
667.62059832205887
 31
0.0
  0
LINE
  5
10A
100
AcDbEntity
  8
0
  6
Continuous
 62
               7
100
AcDbLine
 10
928.38482585091663
 20
646.62059832205864
 30
0.0
 11
930.38482585091663
 21
649.62059832205864
 31
0.0
  0
LINE
  5
10B
100
AcDbEntity
  8
0
  6
Continuous
 62
               7
100
AcDbLine
 10
918.38482585091663
 20
664.62059832205864
 30
0.0
 11
928.38482585091663
 21
664.62059832205864
 31
0.0
  0
LINE
  5
10C
100
AcDbEntity
  8
0
  6
Continuous
 62
               7
100
AcDbLine
 10
918.38482585091663
 20
652.62059832205864
 30
0.0
 11
928.38482585091663
 21
652.62059832205864
 31
0.0
  0
LINE
  5
10D
100
AcDbEntity
  8
0
  6
Continuous
 62
               7
100
AcDbLine
 10
843.38482585091663
 20
664.62059832205864
 30
0.0
 11
845.38482585091663
 21
664.62059832205864
 31
0.0
  0
LINE
  5
10E
100
AcDbEntity
  8
0
  6
Continuous
 62
               7
100
AcDbLine
 10
843.38482585091663
 20
652.62059832205864
 30
0.0
 11
845.38482585091663
 21
652.62059832205864
 31
0.0
  0
LINE
  5
10F
100
AcDbEntity
  8
0
  6
Continuous
 62
               7
100
AcDbLine
 10
930.38482585091663
 20
664.62059832205864
 30
0.0
 11
936.38482585091663
 21
664.62059832205864
 31
0.0
  0
LINE
  5
110
100
AcDbEntity
  8
0
  6
Continuous
 62
               7
100
AcDbLine
 10
930.38482585091663
 20
652.62059832205864
 30
0.0
 11
936.38482585091663
 21
652.62059832205864
 31
0.0
  0
LINE
  5
111
100
AcDbEntity
  8
0
  6
Continuous
 62
               7
100
AcDbLine
 10
936.38482585091663
 20
664.62059832205864
 30
0.0
 11
936.38482585091663
 21
652.62059832205864
 31
0.0
  0
LINE
  5
112
100
AcDbEntity
  8
0
  6
Continuous
 62
               7
100
AcDbLine
 10
838.38482585091663
 20
647.62059832205864
 30
0.0
 11
838.38482585091663
 21
645.44902544680508
 31
0.0
  0
LINE
  5
113
100
AcDbEntity
  8
0
  6
Continuous
 62
               7
100
AcDbLine
 10
826.38482585091663
 20
647.62059832205864
 30
0.0
 11
826.38482585091663
 21
618.62059832205887
 31
0.0
  0
LINE
  5
114
100
AcDbEntity
  8
0
  6
Continuous
 62
               7
100
AcDbLine
 10
826.38482585091663
 20
618.62059832205887
 30
0.0
 11
836.38482585091663
 21
618.62059832205887
 31
0.0
  0
LINE
  5
115
100
AcDbEntity
  8
0
  6
DOT
 62
               7
100
AcDbLine
 10
845.38482585091663
 20
664.62059832205864
 30
0.0
 11
918.38482585091663
 21
664.62059832205864
 31
0.0
  0
LINE
  5
116
100
AcDbEntity
  8
0
  6
DOT
 62
               7
100
AcDbLine
 10
845.38482585091663
 20
652.62059832205864
 30
0.0
 11
918.38482585091663
 21
652.62059832205864
 31
0.0
  0
LINE
  5
117
100
AcDbEntity
  8
0
  6
Continuous
 62
               4
100
AcDbLine
 10
445.38482585091663
 20
288.12059832205864
 30
0.0
 11
895.38482585091663
 21
288.12059832205864
 31
0.0
  0
LINE
  5
118
100
AcDbEntity
  8
0
  6
Continuous
 62
               4
100
AcDbLine
 10
975.38482585091663
 20
591.12059832205887
 30
0.0
 11
1113.3848258509156
 21
591.12059832205887
 31
0.0
  0
LINE
  5
119
100
AcDbEntity
  8
0
  6
Continuous
 62
               4
100
AcDbLine
 10
1111.3848258509156
 20
891.12059832205864
 30
0.0
 11
1111.3848258509156
 21
591.12059832205887
 31
0.0
  0
LINE
  5
11A
100
AcDbEntity
  8
0
  6
DASHED
 62
               6
100
AcDbLine
 10
972.38482585091685
 20
1141.120598322058
 30
0.0
 11
972.38482585091685
 21
458.12059870091582
 31
0.0
  0
LINE
  5
11B
100
AcDbEntity
  8
0
  6
Continuous
 62
               2
100
AcDbLine
 10
972.38482641715621
 20
453.12059870528958
 30
0.0
 11
972.38482497211328
 21
416.72059870211683
 31
0.0
  0
LINE
  5
11C
100
AcDbEntity
  8
0
  6
Continuous
 62
               2
100
AcDbLine
 10
974.38482585091663
 20
1141.120598322058
 30
0.0
 11
974.38482585091663
 21
416.62059832182354
 31
0.0
  0
LINE
  5
11D
100
AcDbEntity
  8
0
  6
Continuous
 62
               2
100
AcDbLine
 10
970.67829044145276
 20
430.10209704453439
 30
0.0
 11
971.38482585091663
 21
416.62059832182354
 31
0.0
  0
LINE
  5
11E
100
AcDbEntity
  8
0
  6
Continuous
 62
               2
100
AcDbLine
 10
994.38482585091663
 20
1141.120598322058
 30
0.0
 11
994.38482585091663
 21
436.62059832182354
 31
0.0
  0
LINE
  5
11F
100
AcDbEntity
  8
0
  6
Continuous
 62
               2
100
AcDbLine
 10
974.38482585091663
 20
416.62059832182354
 30
0.0
 11
994.38482585091663
 21
436.62059832182354
 31
0.0
  0
LINE
  5
120
100
AcDbEntity
  8
0
  6
Continuous
 62
               6
100
AcDbLine
 10
984.38482585091663
 20
1141.120598322058
 30
0.0
 11
984.38482585091663
 21
426.62059832182354
 31
0.0
  0
LINE
  5
121
100
AcDbEntity
  8
0
  6
Continuous
 62
               4
100
AcDbLine
 10
976.78482279280627
 20
416.12059832205887
 30
0.0
 11
1127.3848258509156
 21
416.12059832205887
 31
0.0
  0
LINE
  5
122
100
AcDbEntity
  8
0
  6
Continuous
 62
               4
100
AcDbLine
 10
1111.3848258509156
 20
591.12059832205887
 30
0.0
 11
1111.3848258509156
 21
436.12059832205887
 31
0.0
  0
LINE
  5
123
100
AcDbEntity
  8
0
  6
Continuous
 62
               4
100
AcDbLine
 10
920.38482585091663
 20
1071.1205983220591
 30
0.0
 11
1246.3848258509156
 21
1071.1205983220591
 31
0.0
  0
LINE
  5
124
100
AcDbEntity
  8
0
  6
Continuous
 62
               4
100
AcDbLine
 10
1041.384825850917
 20
1071.1205983220591
 30
0.0
 11
1041.384825850917
 21
1015.1205983220586
 31
0.0
  0
LINE
  5
125
100
AcDbEntity
  8
0
  6
Continuous
 62
               4
100
AcDbLine
 10
1041.384825850917
 20
1057.1205983220586
 30
0.0
 11
1246.3848258509156
 21
1057.1205983220586
 31
0.0
  0
LINE
  5
126
100
AcDbEntity
  8
0
  6
Continuous
 62
               4
100
AcDbLine
 10
1041.384825850917
 20
1043.1205983220589
 30
0.0
 11
1246.3848258509156
 21
1043.1205983220589
 31
0.0
  0
LINE
  5
127
100
AcDbEntity
  8
0
  6
Continuous
 62
               4
100
AcDbLine
 10
1041.384825850917
 20
1029.1205983220589
 30
0.0
 11
1246.3848258509156
 21
1029.1205983220589
 31
0.0
  0
LINE
  5
128
100
AcDbEntity
  8
0
  6
Continuous
 62
               4
100
AcDbLine
 10
1041.384825850917
 20
1015.1205983220586
 30
0.0
 11
1246.3848258509156
 21
1015.1205983220586
 31
0.0
  0
LINE
  5
129
100
AcDbEntity
  8
0
  6
Continuous
 62
               4
100
AcDbLine
 10
920.38482585091663
 20
1071.1205983220591
 30
0.0
 11
926.18038080865119
 21
1072.6735125926739
 31
0.0
  0
LINE
  5
12A
100
AcDbEntity
  8
0
  6
Continuous
 62
               4
100
AcDbLine
 10
920.38482585091663
 20
1071.1205983220591
 30
0.0
 11
926.18038080865119
 21
1069.5676840514441
 31
0.0
  0
LINE
  5
12B
100
AcDbEntity
  8
0
  6
Continuous
 62
               4
100
AcDbLine
 10
974.38482585091663
 20
1031.1205983220589
 30
0.0
 11
994.38482585091663
 21
1031.1205983220589
 31
0.0
  0
LINE
  5
12C
100
AcDbEntity
  8
0
  6
Continuous
 62
               4
100
AcDbLine
 10
976.18482367130275
 20
436.12059937230174
 30
0.0
 11
1221.3848258509165
 21
436.12059937230174
 31
0.0
  0
LINE
  5
12D
100
AcDbEntity
  8
0
  6
Continuous
 62
               4
100
AcDbLine
 10
1125.3848881032945
 20
436.12059832205864
 30
0.0
 11
1125.3848258509156
 21
416.12059832205887
 31
0.0
  0
LINE
  5
12E
100
AcDbEntity
  8
0
  6
Continuous
 62
               4
100
AcDbLine
 10
971.5134463459525
 20
358.12059832205841
 30
0.0
 11
1068.1768564197355
 21
358.12059832205841
 31
0.0
  0
LINE
  5
12F
100
AcDbEntity
  8
0
  6
Continuous
 62
               4
100
AcDbLine
 10
691.19723275259196
 20
337.12059832205864
 30
0.0
 11
784.82319754386197
 21
337.12059832205864
 31
0.0
  0
LINE
  5
130
100
AcDbEntity
  8
0
  6
Continuous
 62
               4
100
AcDbLine
 10
708.05489876821696
 20
351.12059832205864
 30
0.0
 11
786.72051311840175
 21
351.12059832205864
 31
0.0
  0
LINE
  5
131
100
AcDbEntity
  8
0
  6
Continuous
 62
               4
100
AcDbLine
 10
689.38482585091663
 20
533.87059832205864
 30
0.0
 11
667.30117805441353
 21
572.12059832205887
 31
0.0
  0
LINE
  5
132
100
AcDbEntity
  8
0
  6
Continuous
 62
               4
100
AcDbLine
 10
689.38482585091663
 20
533.87059832205864
 30
0.0
 11
685.14218516379731
 21
538.11323900917796
 31
0.0
  0
LINE
  5
133
100
AcDbEntity
  8
0
  6
Continuous
 62
               4
100
AcDbLine
 10
689.38482585091663
 20
533.87059832205864
 30
0.0
 11
687.83191158030161
 21
539.66615327979332
 31
0.0
  0
LINE
  5
134
100
AcDbEntity
  8
0
  6
Continuous
 62
               4
100
AcDbLine
 10
667.30117805441353
 20
572.12059832205887
 30
0.0
 11
493.99520243370773
 21
572.12059832205887
 31
0.0
  0
LINE
  5
135
100
AcDbEntity
  8
0
  6
Continuous
 62
               4
100
AcDbLine
 10
671.42478967954764
 20
614.12059832205887
 30
0.0
 11
695.38482585091663
 21
572.62059832205955
 31
0.0
  0
LINE
  5
136
100
AcDbEntity
  8
0
  6
Continuous
 62
               4
100
AcDbLine
 10
671.42478967954764
 20
614.12059832205887
 30
0.0
 11
536.26987220614876
 21
614.12059832205887
 31
0.0
  0
LINE
  5
137
100
AcDbEntity
  8
0
  6
Continuous
 62
               4
100
AcDbLine
 10
695.38482585091663
 20
572.62059832205955
 30
0.0
 11
691.14218516379754
 21
576.86323900917887
 31
0.0
  0
LINE
  5
138
100
AcDbEntity
  8
0
  6
Continuous
 62
               4
100
AcDbLine
 10
695.38482585091663
 20
572.62059832205955
 30
0.0
 11
693.83191158030161
 21
578.41615327979389
 31
0.0
  0
LINE
  5
139
100
AcDbEntity
  8
0
  6
Continuous
 62
               4
100
AcDbLine
 10
752.86816535252126
 20
684.12059832205864
 30
0.0
 11
775.38482585091663
 21
645.12059832205887
 31
0.0
  0
LINE
  5
13A
100
AcDbEntity
  8
0
  6
Continuous
 62
               4
100
AcDbLine
 10
752.86816535252126
 20
684.12059832205864
 30
0.0
 11
618.00616225083297
 21
684.12059832205864
 31
0.0
  0
LINE
  5
13B
100
AcDbEntity
  8
0
  6
Continuous
 62
               4
100
AcDbLine
 10
775.38482585091663
 20
645.12059832205887
 30
0.0
 11
771.14218516379754
 21
649.36323900917819
 31
0.0
  0
LINE
  5
13C
100
AcDbEntity
  8
0
  6
Continuous
 62
               4
100
AcDbLine
 10
775.38482585091663
 20
645.12059832205887
 30
0.0
 11
773.83191158030161
 21
650.91615327979321
 31
0.0
  0
LINE
  5
13D
100
AcDbEntity
  8
0
  6
Continuous
 62
               4
100
AcDbLine
 10
839.38482585091685
 20
594.62059832205887
 30
0.0
 11
819.17756642927964
 21
559.62059832205887
 31
0.0
  0
LINE
  5
13E
100
AcDbEntity
  8
0
  6
Continuous
 62
               4
100
AcDbLine
 10
839.38482585091685
 20
594.62059832205887
 30
0.0
 11
835.14218516379754
 21
590.37795763493955
 31
0.0
  0
LINE
  5
13F
100
AcDbEntity
  8
0
  6
Continuous
 62
               4
100
AcDbLine
 10
839.38482585091685
 20
594.62059832205887
 30
0.0
 11
837.83191158030138
 21
588.82504336432453
 31
0.0
  0
LINE
  5
140
100
AcDbEntity
  8
0
  6
Continuous
 62
               4
100
AcDbLine
 10
819.17756642927964
 20
559.62059832205887
 30
0.0
 11
732.9555287566867
 21
559.62059832205887
 31
0.0
  0
LINE
  5
141
100
AcDbEntity
  8
0
  6
Continuous
 62
               6
100
AcDbLine
 10
572.38482585091663
 20
394.24931819872904
 30
0.0
 11
571.67152709845561
 21
394.96261390015525
 31
0.0
  0
LINE
  5
142
100
AcDbEntity
  8
0
  6
Continuous
 62
               6
100
AcDbLine
 10
572.38482585091663
 20
391.42088802294779
 30
0.0
 11
568.88511555180605
 21
394.92059832205871
 31
0.0
  0
LINE
  5
143
100
AcDbEntity
  8
0
  6
Continuous
 62
               6
100
AcDbLine
 10
565.47785773975886
 20
395.49942900935935
 30
0.0
 11
565.38482585091663
 21
395.59246089820181
 31
0.0
  0
LINE
  5
144
100
AcDbEntity
  8
0
  6
Continuous
 62
               6
100
AcDbLine
 10
572.38482585091685
 20
388.59246089820147
 30
0.0
 11
565.96365653821761
 21
395.01363021090083
 31
0.0
  0
LINE
  5
145
100
AcDbEntity
  8
0
  6
Continuous
 62
               6
100
AcDbLine
 10
571.54045218586714
 20
386.60840743850486
 30
0.0
 11
565.38482585091663
 21
392.76403377345548
 31
0.0
  0
LINE
  5
146
100
AcDbEntity
  8
0
  6
Continuous
 62
               6
100
AcDbLine
 10
572.38482585091685
 20
385.76403377345537
 30
0.0
 11
572.37263496736307
 21
385.77622465700915
 31
0.0
  0
LINE
  5
147
100
AcDbEntity
  8
0
  6
Continuous
 62
               6
100
AcDbLine
 10
568.6998341775676
 20
386.62059832205864
 30
0.0
 11
565.38482585091685
 21
389.93560664870927
 31
0.0
  0
LINE
  5
148
100
AcDbEntity
  8
0
  6
Continuous
 62
               6
100
AcDbLine
 10
565.87140705282116
 20
386.62059832205864
 30
0.0
 11
565.38482585091685
 21
387.10717952396317
 31
0.0
  0
LINE
  5
149
100
AcDbEntity
  8
0
  6
Continuous
 62
               6
100
AcDbLine
 10
565.56818721986917
 20
395.34349821030048
 30
0.0
 11
565.38482585091685
 21
395.16013684134805
 31
0.0
  0
LINE
  5
14A
100
AcDbEntity
  8
0
  6
Continuous
 62
               6
100
AcDbLine
 10
567.97371445637339
 20
394.92059832205871
 30
0.0
 11
565.38482585091685
 21
392.33170971660206
 31
0.0
  0
LINE
  5
14B
100
AcDbEntity
  8
0
  6
Continuous
 62
               6
100
AcDbLine
 10
570.8021415811196
 20
394.92059832205871
 30
0.0
 11
565.38482585091708
 21
389.50328259185585
 31
0.0
  0
LINE
  5
14C
100
AcDbEntity
  8
0
  6
Continuous
 62
               6
100
AcDbLine
 10
572.38482585091663
 20
393.67485546710986
 30
0.0
 11
565.38482585091708
 21
386.67485546710986
 31
0.0
  0
LINE
  5
14D
100
AcDbEntity
  8
0
  6
Continuous
 62
               6
100
AcDbLine
 10
572.38482585091685
 20
390.84642834236365
 30
0.0
 11
568.15899583061207
 21
386.62059832205864
 31
0.0
  0
LINE
  5
14E
100
AcDbEntity
  8
0
  6
Continuous
 62
               6
100
AcDbLine
 10
572.38482585091685
 20
388.01800121761721
 30
0.0
 11
570.98742295535806
 21
386.62059832205864
 31
0.0
  0
LINE
  5
14F
100
AcDbEntity
  8
0
  6
Continuous
 62
               6
100
AcDbLine
 10
595.38482585091663
 20
393.87673214566371
 30
0.0
 11
594.34095967452151
 21
394.92059832205871
 31
0.0
  0
LINE
  5
150
100
AcDbEntity
  8
0
  6
Continuous
 62
               6
100
AcDbLine
 10
595.38482585091663
 20
391.04830502091738
 30
0.0
 11
591.5125325497753
 21
394.92059832205871
 31
0.0
  0
LINE
  5
151
100
AcDbEntity
  8
0
  6
Continuous
 62
               6
100
AcDbLine
 10
595.38482585091663
 20
388.21987789617106
 30
0.0
 11
588.38482585091663
 21
395.21987789617117
 31
0.0
  0
LINE
  5
152
100
AcDbEntity
  8
0
  6
Continuous
 62
               6
100
AcDbLine
 10
594.15567830028306
 20
386.62059832205864
 30
0.0
 11
588.38482585091663
 21
392.39145077142507
 31
0.0
  0
LINE
  5
153
100
AcDbEntity
  8
0
  6
Continuous
 62
               6
100
AcDbLine
 10
591.32725117553684
 20
386.62059832205864
 30
0.0
 11
588.38482585091663
 21
389.56302364667886
 31
0.0
  0
LINE
  5
154
100
AcDbEntity
  8
0
  6
Continuous
 62
               6
100
AcDbLine
 10
588.737044589319
 20
386.38237778353027
 30
0.0
 11
588.38482585091663
 21
386.73459652193264
 31
0.0
  0
LINE
  5
155
100
AcDbEntity
  8
0
  6
Continuous
 62
               6
100
AcDbLine
 10
588.44135462839688
 20
395.58924862085883
 30
0.0
 11
588.38482585091663
 21
395.53271984337869
 31
0.0
  0
LINE
  5
156
100
AcDbEntity
  8
0
  6
Continuous
 62
               6
100
AcDbLine
 10
590.60113145434286
 20
394.92059832205871
 30
0.0
 11
588.38482585091663
 21
392.70429271863236
 31
0.0
  0
LINE
  5
157
100
AcDbEntity
  8
0
  6
Continuous
 62
               6
100
AcDbLine
 10
593.42955857908908
 20
394.92059832205871
 30
0.0
 11
588.38482585091663
 21
389.87586559388637
 31
0.0
  0
LINE
  5
158
100
AcDbEntity
  8
0
  6
Continuous
 62
               6
100
AcDbLine
 10
595.38482585091685
 20
394.04743846914016
 30
0.0
 11
588.38482585091663
 21
387.04743846914016
 31
0.0
  0
LINE
  5
159
100
AcDbEntity
  8
0
  6
Continuous
 62
               6
100
AcDbLine
 10
595.38482585091685
 20
391.21901134439395
 30
0.0
 11
590.78641282858155
 21
386.62059832205864
 31
0.0
  0
LINE
  5
15A
100
AcDbEntity
  8
0
  6
Continuous
 62
               6
100
AcDbLine
 10
595.38482585091685
 20
388.39058421964774
 30
0.0
 11
593.61483995332776
 21
386.62059832205864
 31
0.0
  0
LINE
  5
15B
100
AcDbEntity
  8
0
  6
Continuous
 62
               6
100
AcDbLine
 10
567.45773211602648
 20
464.61725042486557
 30
0.0
 11
566.58482263475719
 21
463.74434094359617
 31
0.0
  0
LINE
  5
15C
100
AcDbEntity
  8
0
  6
Continuous
 62
               6
100
AcDbLine
 10
568.35907070461792
 20
464.10437545108402
 30
0.0
 11
566.58482263475719
 21
462.33012738122318
 31
0.0
  0
LINE
  5
15D
100
AcDbEntity
  8
0
  6
Continuous
 62
               6
100
AcDbLine
 10
569.18076517897055
 20
463.51185636306332
 30
0.0
 11
566.58482263475719
 21
460.91591381884996
 31
0.0
  0
LINE
  5
15E
100
AcDbEntity
  8
0
  6
Continuous
 62
               6
100
AcDbLine
 10
571.70372070033898
 20
464.62059832205887
 30
0.0
 11
567.20372371446376
 21
460.12060133618343
 31
0.0
  0
LINE
  5
15F
100
AcDbEntity
  8
0
  6
Continuous
 62
               6
100
AcDbLine
 10
573.11793426271231
 20
464.62059832205887
 30
0.0
 11
568.61793727683664
 21
460.12060133618343
 31
0.0
  0
LINE
  5
160
100
AcDbEntity
  8
0
  6
Continuous
 62
               6
100
AcDbLine
 10
574.53214782508542
 20
464.62059832205887
 30
0.0
 11
570.03215083920998
 21
460.12060133618343
 31
0.0
  0
LINE
  5
161
100
AcDbEntity
  8
0
  6
Continuous
 62
               6
100
AcDbLine
 10
575.94636138745852
 20
464.62059832205887
 30
0.0
 11
571.44636440158285
 21
460.12060133618343
 31
0.0
  0
LINE
  5
162
100
AcDbEntity
  8
0
  6
Continuous
 62
               6
100
AcDbLine
 10
577.3605749498314
 20
464.62059832205887
 30
0.0
 11
572.86057796395619
 21
460.12060133618343
 31
0.0
  0
LINE
  5
163
100
AcDbEntity
  8
0
  6
Continuous
 62
               6
100
AcDbLine
 10
578.77478851220451
 20
464.62059832205887
 30
0.0
 11
574.27479152632907
 21
460.12060133618343
 31
0.0
  0
LINE
  5
164
100
AcDbEntity
  8
0
  6
Continuous
 62
               6
100
AcDbLine
 10
579.38482263475692
 20
463.81641888223817
 30
0.0
 11
575.68900508870217
 21
460.12060133618343
 31
0.0
  0
LINE
  5
165
100
AcDbEntity
  8
0
  6
Continuous
 62
               6
100
AcDbLine
 10
580.25039161318693
 20
463.26777429829497
 30
0.0
 11
577.10321865107528
 21
460.12060133618343
 31
0.0
  0
LINE
  5
166
100
AcDbEntity
  8
0
  6
Continuous
 62
               6
100
AcDbLine
 10
582.86056531182578
 20
464.46373443456082
 30
0.0
 11
578.51743221344861
 21
460.12060133618343
 31
0.0
  0
LINE
  5
167
100
AcDbEntity
  8
0
  6
Continuous
 62
               6
100
AcDbLine
 10
583.18482359296365
 20
463.37377915332547
 30
0.0
 11
579.93164577582172
 21
460.12060133618343
 31
0.0
  0
LINE
  5
168
100
AcDbEntity
  8
0
  6
Continuous
 62
               6
100
AcDbLine
 10
583.18482662572626
 20
461.95956862371486
 30
0.0
 11
581.34585933819483
 21
460.12060133618343
 31
0.0
  0
LINE
  5
169
100
AcDbEntity
  8
0
  6
Continuous
 62
               6
100
AcDbLine
 10
583.17803416756544
 20
460.53856260318128
 30
0.0
 11
582.76686823013154
 21
460.12739666574737
 31
0.0
  0
LINE
  5
16A
100
AcDbEntity
  8
0
  6
Continuous
 62
               6
100
AcDbLine
 10
568.14484619729353
 20
427.12059832205887
 30
0.0
 11
566.58481935007433
 21
425.56057147483966
 31
0.0
  0
LINE
  5
16B
100
AcDbEntity
  8
0
  6
Continuous
 62
               6
100
AcDbLine
 10
569.55905975966641
 20
427.12059832205887
 30
0.0
 11
566.58481935007433
 21
424.14635791246656
 31
0.0
  0
LINE
  5
16C
100
AcDbEntity
  8
0
  6
Continuous
 62
               6
100
AcDbLine
 10
570.97327332203952
 20
427.12059832205887
 30
0.0
 11
566.76613653209085
 21
422.91346153210998
 31
0.0
  0
LINE
  5
16D
100
AcDbEntity
  8
0
  6
Continuous
 62
               6
100
AcDbLine
 10
572.3874868844124
 20
427.12059832205887
 30
0.0
 11
568.51909334003142
 21
423.25220477767743
 31
0.0
  0
LINE
  5
16E
100
AcDbEntity
  8
0
  6
Continuous
 62
               6
100
AcDbLine
 10
573.8017004467855
 20
427.12059832205887
 30
0.0
 11
570.37883443261683
 21
423.69773230788974
 31
0.0
  0
LINE
  5
16F
100
AcDbEntity
  8
0
  6
Continuous
 62
               6
100
AcDbLine
 10
575.21591400915884
 20
427.12059832205887
 30
0.0
 11
570.38481935004154
 21
422.28950366294157
 31
0.0
  0
LINE
  5
170
100
AcDbEntity
  8
0
  6
Continuous
 62
               6
100
AcDbLine
 10
576.63012757153194
 20
427.12059832205887
 30
0.0
 11
570.63012757153194
 21
421.12059832205887
 31
0.0
  0
LINE
  5
171
100
AcDbEntity
  8
0
  6
Continuous
 62
               6
100
AcDbLine
 10
578.04434113390505
 20
427.12059832205887
 30
0.0
 11
572.04434113390482
 21
421.12059832205887
 31
0.0
  0
LINE
  5
172
100
AcDbEntity
  8
0
  6
Continuous
 62
               6
100
AcDbLine
 10
579.45855469627816
 20
427.12059832205887
 30
0.0
 11
573.45855469627816
 21
421.12059832205887
 31
0.0
  0
LINE
  5
173
100
AcDbEntity
  8
0
  6
Continuous
 62
               6
100
AcDbLine
 10
580.87276825865126
 20
427.12059832205887
 30
0.0
 11
574.87276825865126
 21
421.12059832205887
 31
0.0
  0
LINE
  5
174
100
AcDbEntity
  8
0
  6
Continuous
 62
               6
100
AcDbLine
 10
582.28698182102437
 20
427.12059832205887
 30
0.0
 11
576.28698182102437
 21
421.12059832205887
 31
0.0
  0
LINE
  5
175
100
AcDbEntity
  8
0
  6
Continuous
 62
               6
100
AcDbLine
 10
579.3848288087903
 20
422.80423174745181
 30
0.0
 11
577.70119538339748
 21
421.12059832205887
 31
0.0
  0
LINE
  5
176
100
AcDbEntity
  8
0
  6
Continuous
 62
               6
100
AcDbLine
 10
583.18482880878958
 20
426.60423174745097
 30
0.0
 11
580.42679438069433
 21
423.84619731935572
 31
0.0
  0
LINE
  5
177
100
AcDbEntity
  8
0
  6
Continuous
 62
               6
100
AcDbLine
 10
579.56729745647874
 20
421.57248683276703
 30
0.0
 11
579.11540894577058
 21
421.12059832205887
 31
0.0
  0
LINE
  5
178
100
AcDbEntity
  8
0
  6
Continuous
 62
               6
100
AcDbLine
 10
583.18482880877548
 20
425.19001818506354
 30
0.0
 11
581.24849830255346
 21
423.25368767884152
 31
0.0
  0
LINE
  5
179
100
AcDbEntity
  8
0
  6
Continuous
 62
               6
100
AcDbLine
 10
583.18482880876115
 20
423.77580462267633
 30
0.0
 11
582.08710340919072
 21
422.67807922310601
 31
0.0
  0
LINE
  5
17A
100
AcDbEntity
  8
0
  6
DOT
 62
               6
100
AcDbLine
 10
427.11124383990307
 20
436.12059832205887
 30
0.0
 11
385.38482585091663
 21
394.39418033307231
 31
0.0
  0
LINE
  5
17B
100
AcDbEntity
  8
0
  6
DOT
 62
               6
100
AcDbLine
 10
497.82192195855816
 20
436.12059832205887
 30
0.0
 11
385.38482585091663
 21
323.68350221441756
 31
0.0
  0
LINE
  5
17C
100
AcDbEntity
  8
0
  6
DOT
 62
               6
100
AcDbLine
 10
505.38482585091685
 20
372.9728240957628
 30
0.0
 11
385.3848258509164
 21
252.97282409576246
 31
0.0
  0
LINE
  5
17D
100
AcDbEntity
  8
0
  6
DOT
 62
               6
100
AcDbLine
 10
505.38482585091685
 20
302.26214597710805
 30
0.0
 11
419.24327819586745
 21
216.12059832205875
 31
0.0
  0
LINE
  5
17E
100
AcDbEntity
  8
0
  6
DOT
 62
               6
100
AcDbLine
 10
424.75422123594797
 20
436.12059832205887
 30
0.0
 11
385.3848258509164
 21
396.75120293702753
 31
0.0
  0
LINE
  5
17F
100
AcDbEntity
  8
0
  6
DOT
 62
               6
100
AcDbLine
 10
495.46489935460306
 20
436.12059832205887
 30
0.0
 11
385.38482585091663
 21
326.04052481837266
 31
0.0
  0
LINE
  5
180
100
AcDbEntity
  8
0
  6
DOT
 62
               6
100
AcDbLine
 10
505.38482585091685
 20
375.3298466997179
 30
0.0
 11
385.3848258509164
 21
255.32984669971779
 31
0.0
  0
LINE
  5
181
100
AcDbEntity
  8
0
  6
DOT
 62
               6
100
AcDbLine
 10
505.38482585091685
 20
304.61916858106315
 30
0.0
 11
416.88625559191235
 21
216.12059832205875
 31
0.0
  0
LINE
  5
182
100
AcDbEntity
  8
0
  6
DIVIDE
 62
               6
100
AcDbLine
 10
385.3848258509164
 20
436.12059832205887
 30
0.0
 11
385.3848258509164
 21
216.12059832205875
 31
0.0
  0
LINE
  5
183
100
AcDbEntity
  8
0
  6
DIVIDE
 62
               6
100
AcDbLine
 10
435.38482585091663
 20
436.12059832205887
 30
0.0
 11
435.38482585091663
 21
216.12059832205875
 31
0.0
  0
LINE
  5
184
100
AcDbEntity
  8
0
  6
DIVIDE
 62
               6
100
AcDbLine
 10
455.38482585091663
 20
216.12059832205875
 30
0.0
 11
455.38482585091663
 21
436.12059832205887
 31
0.0
  0
LINE
  5
185
100
AcDbEntity
  8
0
  6
DIVIDE
 62
               6
100
AcDbLine
 10
505.38482585091663
 20
216.12059832205875
 30
0.0
 11
505.38482585091663
 21
436.12059832205887
 31
0.0
  0
LINE
  5
186
100
AcDbEntity
  8
0
  6
DIVIDE
 62
               7
100
AcDbLine
 10
585.88482585091663
 20
466.12059832205887
 30
0.0
 11
585.38482585091663
 21
466.12059832205887
 31
0.0
  0
LINE
  5
187
100
AcDbEntity
  8
0
  6
Continuous
 62
               6
100
AcDbLine
 10
582.68482880879003
 20
427.12059832205887
 30
0.0
 11
567.08481935007433
 21
427.12059832205887
 31
0.0
  0
LINE
  5
188
100
AcDbEntity
  8
0
  6
Continuous
 62
               6
100
AcDbLine
 10
580.38482585091663
 20
421.12059832205887
 30
0.0
 11
569.38481935004131
 21
421.12059832205887
 31
0.0
  0
LINE
  5
189
100
AcDbEntity
  8
0
  6
Continuous
 62
               6
100
AcDbLine
 10
579.38482263475692
 20
464.62059832205887
 30
0.0
 11
570.38482263475692
 21
464.62059832205887
 31
0.0
  0
LINE
  5
18A
100
AcDbEntity
  8
0
  6
Continuous
 62
               6
100
AcDbLine
 10
581.38483209350636
 20
460.12060133618343
 30
0.0
 11
568.38482263475692
 21
460.12060133618343
 31
0.0
  0
LINE
  5
18B
100
AcDbEntity
  8
0
  6
Continuous
 62
               7
100
AcDbLine
 10
525.38482585091663
 20
421.12059832205864
 30
0.0
 11
525.38482585091663
 21
475.62059832205864
 31
0.0
  0
LINE
  5
18C
100
AcDbEntity
  8
0
  6
Continuous
 62
               7
100
AcDbLine
 10
525.38482585091663
 20
421.12059832205864
 30
0.0
 11
557.88482585091663
 21
421.12059832205887
 31
0.0
  0
LINE
  5
18D
100
AcDbEntity
  8
0
  6
Continuous
 62
               7
100
AcDbLine
 10
625.38482585091663
 20
421.12059832205887
 30
0.0
 11
625.38482585091663
 21
461.12059832205864
 31
0.0
  0
LINE
  5
18E
100
AcDbEntity
  8
0
  6
Continuous
 62
               7
100
AcDbLine
 10
625.38482585091663
 20
461.12059832205864
 30
0.0
 11
610.38482585091663
 21
466.12059832205887
 31
0.0
  0
LINE
  5
18F
100
AcDbEntity
  8
0
  6
Continuous
 62
               7
100
AcDbLine
 10
568.88482585091663
 20
476.12059832205887
 30
0.0
 11
565.28482585091672
 21
476.12059832205887
 31
0.0
  0
LINE
  5
190
100
AcDbEntity
  8
0
  6
Continuous
 62
               7
100
AcDbLine
 10
568.58482585091667
 20
474.32059832205891
 30
0.0
 11
565.28482585091672
 21
474.32059832205891
 31
0.0
  0
LINE
  5
191
100
AcDbEntity
  8
0
  6
Continuous
 62
               7
100
AcDbLine
 10
568.58482585091667
 20
474.32059832205891
 30
0.0
 11
568.58482585091667
 21
466.12059832205887
 31
0.0
  0
LINE
  5
192
100
AcDbEntity
  8
0
  6
Continuous
 62
               7
100
AcDbLine
 10
525.88482585091663
 20
476.12059832205864
 30
0.0
 11
533.48482585091676
 21
476.12059832205864
 31
0.0
  0
LINE
  5
193
100
AcDbEntity
  8
0
  6
Continuous
 62
               7
100
AcDbLine
 10
527.18482585091658
 20
474.3205983220588
 30
0.0
 11
533.48482585091676
 21
474.3205983220588
 31
0.0
  0
LINE
  5
194
100
AcDbEntity
  8
0
  6
Continuous
 62
               7
100
AcDbLine
 10
527.18482585091658
 20
474.3205983220588
 30
0.0
 11
527.18482585091658
 21
466.12059832205864
 31
0.0
  0
LINE
  5
195
100
AcDbEntity
  8
0
  6
Continuous
 62
               7
100
AcDbLine
 10
623.58482585091667
 20
422.92059832205882
 30
0.0
 11
623.58482585091667
 21
459.82323172595761
 31
0.0
  0
LINE
  5
196
100
AcDbEntity
  8
0
  6
Continuous
 62
               7
100
AcDbLine
 10
623.58482585091667
 20
459.82323172595761
 30
0.0
 11
610.09272606261368
 21
464.32059832205891
 31
0.0
  0
LINE
  5
197
100
AcDbEntity
  8
0
  6
Continuous
 62
               7
100
AcDbLine
 10
610.09272606261368
 20
464.32059832205891
 30
0.0
 11
606.9449583027
 21
464.32059832205891
 31
0.0
  0
LINE
  5
198
100
AcDbEntity
  8
0
  6
Continuous
 62
               7
100
AcDbLine
 10
527.18482585091658
 20
422.92059832205882
 30
0.0
 11
527.18482585091658
 21
464.32059832205857
 31
0.0
  0
LINE
  5
199
100
AcDbEntity
  8
0
  6
Continuous
 62
               7
100
AcDbLine
 10
527.18482585091658
 20
422.92059832205882
 30
0.0
 11
541.67403078786072
 21
422.92059832205859
 31
0.0
  0
LINE
  5
19A
100
AcDbEntity
  8
0
  6
Continuous
 62
               7
100
AcDbLine
 10
559.68482585091681
 20
421.12059832205898
 30
0.0
 11
569.38481935004131
 21
421.12059832205887
 31
0.0
  0
LINE
  5
19B
100
AcDbEntity
  8
0
  6
Continuous
 62
               7
100
AcDbLine
 10
527.18482585091658
 20
466.12059832205864
 30
0.0
 11
568.58482585091667
 21
466.12059832205887
 31
0.0
  0
LINE
  5
19C
100
AcDbEntity
  8
0
  6
Continuous
 62
               7
100
AcDbLine
 10
541.67403078786072
 20
464.32059832205857
 30
0.0
 11
527.18482585091658
 21
464.32059832205857
 31
0.0
  0
LINE
  5
19D
100
AcDbEntity
  8
0
  6
Continuous
 62
               7
100
AcDbLine
 10
594.38482585091663
 20
421.12059832205887
 30
0.0
 11
594.38482585091663
 21
419.42059832205882
 31
0.0
  0
LINE
  5
19E
100
AcDbEntity
  8
0
  6
Continuous
 62
               7
100
AcDbLine
 10
594.38482585091663
 20
421.12059832205887
 30
0.0
 11
617.58482585091667
 21
421.12059832205887
 31
0.0
  0
LINE
  5
19F
100
AcDbEntity
  8
0
  6
Continuous
 62
               7
100
AcDbLine
 10
594.38482585091663
 20
419.42059832205882
 30
0.0
 11
596.38482585091663
 21
419.42059832205882
 31
0.0
  0
LINE
  5
1A0
100
AcDbEntity
  8
0
  6
Continuous
 62
               7
100
AcDbLine
 10
596.38482585091663
 20
402.12059832205864
 30
0.0
 11
596.38482585091663
 21
419.42059832205882
 31
0.0
  0
LINE
  5
1A1
100
AcDbEntity
  8
0
  6
Continuous
 62
               7
100
AcDbLine
 10
595.88482585091663
 20
418.12059832205887
 30
0.0
 11
594.18482585091681
 21
418.12059832205887
 31
0.0
  0
LINE
  5
1A2
100
AcDbEntity
  8
0
  6
Continuous
 62
               7
100
AcDbLine
 10
592.88482585091663
 20
419.42059832205882
 30
0.0
 11
592.88482585091663
 21
421.12059832205887
 31
0.0
  0
LINE
  5
1A3
100
AcDbEntity
  8
0
  6
Continuous
 62
               7
100
AcDbLine
 10
618.88482585091663
 20
386.12059832205864
 30
0.0
 11
618.88482585091663
 21
421.12059832205887
 31
0.0
  0
LINE
  5
1A4
100
AcDbEntity
  8
0
  6
Continuous
 62
               7
100
AcDbLine
 10
618.88482585091663
 20
421.12059832205887
 30
0.0
 11
625.38482585091663
 21
421.12059832205887
 31
0.0
  0
LINE
  5
1A5
100
AcDbEntity
  8
0
  6
Continuous
 62
               7
100
AcDbLine
 10
616.88482585091663
 20
416.12059832205887
 30
0.0
 11
618.88482585091663
 21
416.12059832205887
 31
0.0
  0
LINE
  5
1A6
100
AcDbEntity
  8
0
  6
Continuous
 62
               7
100
AcDbLine
 10
616.88482585091663
 20
416.12059832205887
 30
0.0
 11
616.88482585091663
 21
417.42059832205882
 31
0.0
  0
LINE
  5
1A7
100
AcDbEntity
  8
0
  6
Continuous
 62
               7
100
AcDbLine
 10
616.88482585091663
 20
417.42059832205882
 30
0.0
 11
617.58482585091667
 21
417.42059832205882
 31
0.0
  0
LINE
  5
1A8
100
AcDbEntity
  8
0
  6
Continuous
 62
               7
100
AcDbLine
 10
617.58482585091667
 20
417.42059832205882
 30
0.0
 11
617.58482585091667
 21
421.12059832205887
 31
0.0
  0
LINE
  5
1A9
100
AcDbEntity
  8
0
  6
Continuous
 62
               7
100
AcDbLine
 10
602.63528043394319
 20
458.12059832205887
 30
0.0
 11
604.01311070551321
 21
458.12059832205887
 31
0.0
  0
LINE
  5
1AA
100
AcDbEntity
  8
0
  6
Continuous
 62
               7
100
AcDbLine
 10
608.13437126789029
 20
458.12059832205887
 30
0.0
 11
606.75654099632004
 21
458.12059832205887
 31
0.0
  0
LINE
  5
1AB
100
AcDbEntity
  8
0
  6
Continuous
 62
               7
100
AcDbLine
 10
603.82469339913325
 20
464.32059832205891
 30
0.0
 11
584.88482585091663
 21
464.32059832205891
 31
0.0
  0
LINE
  5
1AC
100
AcDbEntity
  8
0
  6
Continuous
 62
               7
100
AcDbLine
 10
600.67403078786049
 20
422.92059832205882
 30
0.0
 11
584.88482585091663
 21
422.92059832205882
 31
0.0
  0
LINE
  5
1AD
100
AcDbEntity
  8
0
  6
Continuous
 62
               7
100
AcDbLine
 10
564.88482610921926
 20
422.92059832205882
 30
0.0
 11
564.88482610921949
 21
464.32059832205891
 31
0.0
  0
LINE
  5
1AE
100
AcDbEntity
  8
0
  6
Continuous
 62
               7
100
AcDbLine
 10
549.09562091397277
 20
422.92059832205859
 30
0.0
 11
564.88482610921949
 21
422.92059832205882
 31
0.0
  0
LINE
  5
1AF
100
AcDbEntity
  8
0
  6
Continuous
 62
               7
100
AcDbLine
 10
530.38482585091663
 20
460.62059832205864
 30
0.0
 11
561.68482610921967
 21
460.62059832205864
 31
0.0
  0
LINE
  5
1B0
100
AcDbEntity
  8
0
  6
Continuous
 62
               7
100
AcDbLine
 10
544.01311070551321
 20
426.62059832205864
 30
0.0
 11
542.63528043394319
 21
426.62059832205864
 31
0.0
  0
LINE
  5
1B1
100
AcDbEntity
  8
0
  6
Continuous
 62
               7
100
AcDbLine
 10
546.75654099632004
 20
426.62059832205864
 30
0.0
 11
548.13437126789006
 21
426.62059832205864
 31
0.0
  0
LINE
  5
1B2
100
AcDbEntity
  8
0
  6
Continuous
 62
               7
100
AcDbLine
 10
603.01311070551321
 20
426.62059832205887
 30
0.0
 11
601.63528043394319
 21
426.62059832205887
 31
0.0
  0
LINE
  5
1B3
100
AcDbEntity
  8
0
  6
Continuous
 62
               7
100
AcDbLine
 10
605.75654099632004
 20
426.62059832205887
 30
0.0
 11
607.13437126789006
 21
426.62059832205887
 31
0.0
  0
LINE
  5
1B4
100
AcDbEntity
  8
0
  6
Continuous
 62
               7
100
AcDbLine
 10
623.58482585091667
 20
422.92059832205882
 30
0.0
 11
608.09562091397254
 21
422.92059832205882
 31
0.0
  0
LINE
  5
1B5
100
AcDbEntity
  8
0
  6
Continuous
 62
               7
100
AcDbLine
 10
564.88482610921926
 20
464.32059832205891
 30
0.0
 11
549.09562091397231
 21
464.32059832205857
 31
0.0
  0
LINE
  5
1B6
100
AcDbEntity
  8
0
  6
Continuous
 62
               7
100
AcDbLine
 10
566.58482610921931
 20
459.12059832205887
 30
0.0
 11
566.58482610921931
 21
428.12060101492978
 31
0.0
  0
LINE
  5
1B7
100
AcDbEntity
  8
0
  6
Continuous
 62
               7
100
AcDbLine
 10
580.3848288087903
 20
421.12059832205887
 30
0.0
 11
592.88482585091663
 21
421.12059832205887
 31
0.0
  0
LINE
  5
1B8
100
AcDbEntity
  8
0
  6
Continuous
 62
               7
100
AcDbLine
 10
565.38482585091663
 20
393.12059832205864
 30
0.0
 11
564.38482585091663
 21
393.12059832205864
 31
0.0
  0
LINE
  5
1B9
100
AcDbEntity
  8
0
  6
Continuous
 62
               7
100
AcDbLine
 10
564.88482585091663
 20
401.12059832205864
 30
0.0
 11
559.68482585091681
 21
401.12059832205864
 31
0.0
  0
LINE
  5
1BA
100
AcDbEntity
  8
0
  6
Continuous
 62
               7
100
AcDbLine
 10
557.88482585091663
 20
386.12059832205864
 30
0.0
 11
564.88482585091663
 21
386.12059832205864
 31
0.0
  0
LINE
  5
1BB
100
AcDbEntity
  8
0
  6
Continuous
 62
               7
100
AcDbLine
 10
559.68482585091681
 20
387.62059832205864
 30
0.0
 11
563.88482585091663
 21
387.62059832205864
 31
0.0
  0
LINE
  5
1BC
100
AcDbEntity
  8
0
  6
Continuous
 62
               7
100
AcDbLine
 10
559.68482585091681
 20
401.12059832205864
 30
0.0
 11
559.68482585091681
 21
387.62059832205864
 31
0.0
  0
LINE
  5
1BD
100
AcDbEntity
  8
0
  6
Continuous
 62
               7
100
AcDbLine
 10
559.68482585091681
 20
402.12059832205864
 30
0.0
 11
564.88482585091663
 21
402.12059832205864
 31
0.0
  0
LINE
  5
1BE
100
AcDbEntity
  8
0
  6
Continuous
 62
               7
100
AcDbLine
 10
565.38482585091685
 20
386.62059832205864
 30
0.0
 11
565.38482585091663
 21
393.12059832205864
 31
0.0
  0
LINE
  5
1BF
100
AcDbEntity
  8
0
  6
Continuous
 62
               7
100
AcDbLine
 10
564.38482585091663
 20
393.12059832205864
 30
0.0
 11
563.88482585091663
 21
387.62059832205864
 31
0.0
  0
LINE
  5
1C0
100
AcDbEntity
  8
0
  6
Continuous
 62
               7
100
AcDbLine
 10
559.68482585091681
 20
421.12059832205898
 30
0.0
 11
559.68482585091681
 21
402.12059832205864
 31
0.0
  0
LINE
  5
1C1
100
AcDbEntity
  8
0
  6
Continuous
 62
               7
100
AcDbLine
 10
557.88482585091663
 20
386.12059832205864
 30
0.0
 11
557.88482585091663
 21
421.12059832205887
 31
0.0
  0
LINE
  5
1C2
100
AcDbEntity
  8
0
  6
Continuous
 62
               7
100
AcDbLine
 10
581.38482585091663
 20
459.12060133618343
 30
0.0
 11
583.38482585091663
 21
459.12060133618343
 31
0.0
  0
LINE
  5
1C3
100
AcDbEntity
  8
0
  6
Continuous
 62
               7
100
AcDbLine
 10
584.88482585091663
 20
464.32059832205891
 30
0.0
 11
584.88482585091663
 21
460.62060133618343
 31
0.0
  0
LINE
  5
1C4
100
AcDbEntity
  8
0
  6
Continuous
 62
               7
100
AcDbLine
 10
568.38482610921903
 20
459.12059832205887
 30
0.0
 11
566.58482610921931
 21
459.12059832205887
 31
0.0
  0
LINE
  5
1C5
100
AcDbEntity
  8
0
  6
Continuous
 62
               7
100
AcDbLine
 10
568.38482263475692
 20
460.12060133618343
 30
0.0
 11
567.08482263475719
 21
460.12060133618343
 31
0.0
  0
LINE
  5
1C6
100
AcDbEntity
  8
0
  6
Continuous
 62
               7
100
AcDbLine
 10
582.68482949712927
 20
460.12060133618343
 30
0.0
 11
581.38483209350636
 21
460.12060133618343
 31
0.0
  0
LINE
  5
1C7
100
AcDbEntity
  8
0
  6
Continuous
 62
               7
100
AcDbLine
 10
583.1848226347571
 20
463.82060133613697
 30
0.0
 11
583.18482949712813
 21
460.62060240836877
 31
0.0
  0
LINE
  5
1C8
100
AcDbEntity
  8
0
  6
Continuous
 62
               7
100
AcDbLine
 10
566.58482263475719
 20
463.82060133613697
 30
0.0
 11
566.58482263475719
 21
460.62060133618343
 31
0.0
  0
LINE
  5
1C9
100
AcDbEntity
  8
0
  6
Continuous
 62
               7
100
AcDbLine
 10
569.59237810281832
 20
463.21504468686487
 30
0.0
 11
567.85273388585904
 21
464.46949197486117
 31
0.0
  0
LINE
  5
1CA
100
AcDbEntity
  8
0
  6
Continuous
 62
               7
100
AcDbLine
 10
570.38482263475692
 20
464.62059832205887
 30
0.0
 11
570.38482263475692
 21
463.62060133618365
 31
0.0
  0
LINE
  5
1CB
100
AcDbEntity
  8
0
  6
Continuous
 62
               7
100
AcDbLine
 10
581.91691138365479
 20
464.46949197486117
 30
0.0
 11
580.17726716669597
 21
463.21504468686487
 31
0.0
  0
LINE
  5
1CC
100
AcDbEntity
  8
0
  6
Continuous
 62
               7
100
AcDbLine
 10
579.38482263475692
 20
463.62060133618365
 30
0.0
 11
579.38482263475692
 21
464.62059832205887
 31
0.0
  0
LINE
  5
1CD
100
AcDbEntity
  8
0
  6
Continuous
 62
               7
100
AcDbLine
 10
578.88482263475692
 20
466.12059832205887
 30
0.0
 11
610.38482585091663
 21
466.12059832205887
 31
0.0
  0
LINE
  5
1CE
100
AcDbEntity
  8
0
  6
Continuous
 62
               7
100
AcDbLine
 10
567.85273147012811
 20
422.77170830992861
 30
0.0
 11
569.59241674382849
 21
424.02615077844678
 31
0.0
  0
LINE
  5
1CF
100
AcDbEntity
  8
0
  6
Continuous
 62
               7
100
AcDbLine
 10
580.17723141500358
 20
424.02615077844678
 30
0.0
 11
581.91691668870374
 21
422.77170830992861
 31
0.0
  0
LINE
  5
1D0
100
AcDbEntity
  8
0
  6
Continuous
 62
               7
100
AcDbLine
 10
583.18482880879003
 20
426.62059832205887
 30
0.0
 11
583.18482880875752
 21
423.42060558269623
 31
0.0
  0
LINE
  5
1D1
100
AcDbEntity
  8
0
  6
Continuous
 62
               7
100
AcDbLine
 10
582.68482880879003
 20
427.12059832205887
 30
0.0
 11
581.38512880879045
 21
427.12059832205887
 31
0.0
  0
LINE
  5
1D2
100
AcDbEntity
  8
0
  6
Continuous
 62
               7
100
AcDbLine
 10
581.38512880879045
 20
428.12059832205887
 30
0.0
 11
583.38482585091663
 21
428.12059832205887
 31
0.0
  0
LINE
  5
1D3
100
AcDbEntity
  8
0
  6
Continuous
 62
               7
100
AcDbLine
 10
567.08481935007433
 20
427.12059832205887
 30
0.0
 11
568.38451935004161
 21
427.12059832205887
 31
0.0
  0
LINE
  5
1D4
100
AcDbEntity
  8
0
  6
Continuous
 62
               7
100
AcDbLine
 10
566.58481935007433
 20
426.62059832205887
 30
0.0
 11
566.58481935007433
 21
423.42060558269623
 31
0.0
  0
LINE
  5
1D5
100
AcDbEntity
  8
0
  6
Continuous
 62
               7
100
AcDbLine
 10
584.88482585091663
 20
422.92059832205882
 30
0.0
 11
584.88482585091663
 21
426.62059832205887
 31
0.0
  0
LINE
  5
1D6
100
AcDbEntity
  8
0
  6
Continuous
 62
               7
100
AcDbLine
 10
566.58482610921931
 20
428.12060101492978
 30
0.0
 11
568.38451935004161
 21
428.12059832205887
 31
0.0
  0
LINE
  5
1D7
100
AcDbEntity
  8
0
  6
Continuous
 62
               7
100
AcDbLine
 10
570.38481935004154
 20
423.62059832205887
 30
0.0
 11
570.38481935004154
 21
422.12059832205887
 31
0.0
  0
LINE
  5
1D8
100
AcDbEntity
  8
0
  6
Continuous
 62
               7
100
AcDbLine
 10
579.3848288087903
 20
423.62059832205887
 30
0.0
 11
579.3848288087903
 21
422.12059832205887
 31
0.0
  0
LINE
  5
1D9
100
AcDbEntity
  8
0
  6
Continuous
 62
               7
100
AcDbLine
 10
578.88482263475692
 20
466.12059832205887
 30
0.0
 11
578.88482263475692
 21
464.62059832205887
 31
0.0
  0
LINE
  5
1DA
100
AcDbEntity
  8
0
  6
Continuous
 62
               7
100
AcDbLine
 10
578.88482263475692
 20
464.62059832205887
 30
0.0
 11
579.38482263475692
 21
464.62059832205887
 31
0.0
  0
LINE
  5
1DB
100
AcDbEntity
  8
0
  6
Continuous
 62
               7
100
AcDbLine
 10
570.38482585091663
 20
466.12059832205887
 30
0.0
 11
570.88482585091663
 21
466.12059832205887
 31
0.0
  0
LINE
  5
1DC
100
AcDbEntity
  8
0
  6
Continuous
 62
               7
100
AcDbLine
 10
570.38482585091663
 20
466.12059832205887
 30
0.0
 11
570.38482585091663
 21
474.62059832205887
 31
0.0
  0
LINE
  5
1DD
100
AcDbEntity
  8
0
  6
Continuous
 62
               7
100
AcDbLine
 10
570.88482585091663
 20
466.12059832205887
 30
0.0
 11
570.88482585091663
 21
464.62059832205887
 31
0.0
  0
LINE
  5
1DE
100
AcDbEntity
  8
0
  6
Continuous
 62
               7
100
AcDbLine
 10
570.88482585091663
 20
464.62059832205887
 30
0.0
 11
570.38482585091663
 21
464.62059832205887
 31
0.0
  0
LINE
  5
1DF
100
AcDbEntity
  8
0
  6
Continuous
 62
               7
100
AcDbLine
 10
597.68482585091681
 20
419.42059832205882
 30
0.0
 11
597.68482585091681
 21
393.0855093861262
 31
0.0
  0
LINE
  5
1E0
100
AcDbEntity
  8
0
  6
Continuous
 62
               7
100
AcDbLine
 10
596.38482585091663
 20
420.72059832205855
 30
0.0
 11
595.03482585091672
 21
420.72059832205855
 31
0.0
  0
LINE
  5
1E1
100
AcDbEntity
  8
0
  6
Continuous
 62
               7
100
AcDbLine
 10
596.68482585091681
 20
391.82059832205857
 30
0.0
 11
596.68482585091681
 21
387.92059832205882
 31
0.0
  0
LINE
  5
1E2
100
AcDbEntity
  8
0
  6
Continuous
 62
               7
100
AcDbLine
 10
596.68482585091681
 20
387.92059832205882
 30
0.0
 11
617.08482585091667
 21
387.92059832205882
 31
0.0
  0
LINE
  5
1E3
100
AcDbEntity
  8
0
  6
Continuous
 62
               7
100
AcDbLine
 10
617.08482585091667
 20
387.92059832205882
 30
0.0
 11
617.08482585091667
 21
414.82059832205857
 31
0.0
  0
LINE
  5
1E4
100
AcDbEntity
  8
0
  6
Continuous
 62
               7
100
AcDbLine
 10
596.38482585091663
 20
401.12059832205864
 30
0.0
 11
596.38482585091663
 21
393.12059832205864
 31
0.0
  0
LINE
  5
1E5
100
AcDbEntity
  8
0
  6
Continuous
 62
               7
100
AcDbLine
 10
596.38482585091663
 20
393.12059832205864
 30
0.0
 11
595.38482585091663
 21
393.12059832205864
 31
0.0
  0
LINE
  5
1E6
100
AcDbEntity
  8
0
  6
Continuous
 62
               7
100
AcDbLine
 10
595.38482585091663
 20
393.12059832205864
 30
0.0
 11
595.38482585091663
 21
386.62059832205864
 31
0.0
  0
LINE
  5
1E7
100
AcDbEntity
  8
0
  6
Continuous
 62
               7
100
AcDbLine
 10
595.88482585091663
 20
386.12059832205864
 30
0.0
 11
618.88482585091663
 21
386.12059832205864
 31
0.0
  0
LINE
  5
1E8
100
AcDbEntity
  8
0
  6
Continuous
 62
               7
100
AcDbLine
 10
616.88482585091663
 20
417.42059832205882
 30
0.0
 11
617.18482585091681
 21
417.82059832205857
 31
0.0
  0
LINE
  5
1E9
100
AcDbEntity
  8
0
  6
Continuous
 62
               7
100
AcDbLine
 10
617.18482585091681
 20
417.82059832205857
 30
0.0
 11
616.15892681738262
 21
420.43197768014568
 31
0.0
  0
LINE
  5
1EA
100
AcDbEntity
  8
0
  6
Continuous
 62
               7
100
AcDbLine
 10
615.58482585091667
 20
420.32325246039977
 30
0.0
 11
615.58482585091667
 21
416.12059832205887
 31
0.0
  0
LINE
  5
1EB
100
AcDbEntity
  8
0
  6
Continuous
 62
               7
100
AcDbLine
 10
616.88482585091663
 20
414.82059832205857
 30
0.0
 11
617.08482585091667
 21
414.82059832205857
 31
0.0
  0
LINE
  5
1EC
100
AcDbEntity
  8
0
  6
Continuous
 62
               7
100
AcDbLine
 10
595.88482585091663
 20
401.12059832205864
 30
0.0
 11
596.38482585091663
 21
401.12059832205864
 31
0.0
  0
LINE
  5
1ED
100
AcDbEntity
  8
0
  6
Continuous
 62
               7
100
AcDbLine
 10
596.38482585091663
 20
402.12059832205864
 30
0.0
 11
595.88482585091663
 21
402.12059832205864
 31
0.0
  0
LINE
  5
1EE
100
AcDbEntity
  8
0
  6
Continuous
 62
               4
100
AcDbLine
 10
518.38482585091663
 20
476.12059832205864
 30
0.0
 11
525.3848258509164
 21
476.12059832205887
 31
0.0
  0
LINE
  5
1EF
100
AcDbEntity
  8
0
  6
Continuous
 62
               4
100
AcDbLine
 10
518.38482585091663
 20
216.12059832205875
 30
0.0
 11
518.38482585091663
 21
476.12059832205864
 31
0.0
  0
LINE
  5
1F0
100
AcDbEntity
  8
0
  6
Continuous
 62
               4
100
AcDbLine
 10
565.38482585091685
 20
386.62059832205864
 30
0.0
 11
565.38482585091685
 21
216.12059832205875
 31
0.0
  0
LINE
  5
1F1
100
AcDbEntity
  8
0
  6
Continuous
 62
               4
100
AcDbLine
 10
595.38482585091663
 20
386.62059832205864
 30
0.0
 11
595.38482585091663
 21
216.12059832205875
 31
0.0
  0
LINE
  5
1F2
100
AcDbEntity
  8
0
  6
Continuous
 62
               4
100
AcDbLine
 10
557.88482585091663
 20
386.12059832205864
 30
0.0
 11
557.88482585091663
 21
216.12059832205875
 31
0.0
  0
LINE
  5
1F3
100
AcDbEntity
  8
0
  6
Continuous
 62
               4
100
AcDbLine
 10
525.38482585091663
 20
421.12059832205864
 30
0.0
 11
525.38482585091663
 21
216.12059832205875
 31
0.0
  0
LINE
  5
1F4
100
AcDbEntity
  8
0
  6
Continuous
 62
               4
100
AcDbLine
 10
618.88482585091663
 20
386.12059832205864
 30
0.0
 11
618.88482585091663
 21
216.12059832205875
 31
0.0
  0
LINE
  5
1F5
100
AcDbEntity
  8
0
  6
Continuous
 62
               6
100
AcDbLine
 10
595.38482585091663
 20
386.62059832205864
 30
0.0
 11
595.38482585091663
 21
400.12059832205864
 31
0.0
  0
LINE
  5
1F6
100
AcDbEntity
  8
0
  6
Continuous
 62
               6
100
AcDbLine
 10
588.38482585091663
 20
385.62059832205864
 30
0.0
 11
588.38482585091663
 21
400.12059832205864
 31
0.0
  0
LINE
  5
1F7
100
AcDbEntity
  8
0
  6
Continuous
 62
               6
100
AcDbLine
 10
594.38482585091663
 20
394.92059832205871
 30
0.0
 11
589.38482585091663
 21
394.92059832205871
 31
0.0
  0
LINE
  5
1F8
100
AcDbEntity
  8
0
  6
Continuous
 62
               6
100
AcDbLine
 10
594.38482585091663
 20
401.12059832205864
 30
0.0
 11
589.38482585091663
 21
401.12059832205864
 31
0.0
  0
LINE
  5
1F9
100
AcDbEntity
  8
0
  6
Continuous
 62
               6
100
AcDbLine
 10
589.38482585091663
 20
386.62059832205864
 30
0.0
 11
595.38482585091663
 21
386.62059832205864
 31
0.0
  0
LINE
  5
1FA
100
AcDbEntity
  8
0
  6
Continuous
 62
               6
100
AcDbLine
 10
565.38482585091685
 20
386.62059832205864
 30
0.0
 11
565.38482585091663
 21
400.12059832205864
 31
0.0
  0
LINE
  5
1FB
100
AcDbEntity
  8
0
  6
Continuous
 62
               6
100
AcDbLine
 10
572.38482585091685
 20
385.62059832205864
 30
0.0
 11
572.38482585091663
 21
400.12059832205864
 31
0.0
  0
LINE
  5
1FC
100
AcDbEntity
  8
0
  6
Continuous
 62
               6
100
AcDbLine
 10
566.38482585091663
 20
394.92059832205871
 30
0.0
 11
571.38482585091663
 21
394.92059832205871
 31
0.0
  0
LINE
  5
1FD
100
AcDbEntity
  8
0
  6
Continuous
 62
               6
100
AcDbLine
 10
566.38482585091663
 20
401.12059832205864
 30
0.0
 11
571.38482585091663
 21
401.12059832205864
 31
0.0
  0
LINE
  5
1FE
100
AcDbEntity
  8
0
  6
Continuous
 62
               6
100
AcDbLine
 10
571.38482585091685
 20
386.62059832205864
 30
0.0
 11
565.38482585091685
 21
386.62059832205864
 31
0.0
  0
LINE
  5
1FF
100
AcDbEntity
  8
0
  6
Continuous
 62
               7
100
AcDbLine
 10
577.38482585091663
 20
401.12059832205864
 30
0.0
 11
583.38482585091663
 21
395.12059832205864
 31
0.0
  0
LINE
  5
200
100
AcDbEntity
  8
0
  6
Continuous
 62
               7
100
AcDbLine
 10
583.38482585091663
 20
401.12059832205864
 30
0.0
 11
577.38482585091663
 21
395.12059832205864
 31
0.0
  0
LINE
  5
201
100
AcDbEntity
  8
0
  6
Continuous
 62
               7
100
AcDbLine
 10
577.38482585091663
 20
395.12059832205864
 30
0.0
 11
583.38482585091663
 21
395.12059832205864
 31
0.0
  0
LINE
  5
202
100
AcDbEntity
  8
0
  6
Continuous
 62
               7
100
AcDbLine
 10
572.38482585091663
 20
401.12059832205864
 30
0.0
 11
576.38482585091663
 21
401.12059832205864
 31
0.0
  0
LINE
  5
203
100
AcDbEntity
  8
0
  6
Continuous
 62
               7
100
AcDbLine
 10
573.38482585091663
 20
401.12059832205864
 30
0.0
 11
573.38482585091663
 21
216.12059832205875
 31
0.0
  0
LINE
  5
204
100
AcDbEntity
  8
0
  6
Continuous
 62
               7
100
AcDbLine
 10
576.38482585091663
 20
401.12059832205864
 30
0.0
 11
576.38482585091663
 21
216.12059832205875
 31
0.0
  0
LINE
  5
205
100
AcDbEntity
  8
0
  6
Continuous
 62
               7
100
AcDbLine
 10
572.38482585091663
 20
401.12059832205864
 30
0.0
 11
572.38482585091663
 21
216.12059832205875
 31
0.0
  0
LINE
  5
206
100
AcDbEntity
  8
0
  6
Continuous
 62
               7
100
AcDbLine
 10
577.38482585091663
 20
216.12059832205875
 30
0.0
 11
577.38482585091663
 21
401.12059832205864
 31
0.0
  0
LINE
  5
207
100
AcDbEntity
  8
0
  6
Continuous
 62
               7
100
AcDbLine
 10
584.38482585091663
 20
401.12059832205864
 30
0.0
 11
584.38482585091663
 21
216.12059832205875
 31
0.0
  0
LINE
  5
208
100
AcDbEntity
  8
0
  6
Continuous
 62
               7
100
AcDbLine
 10
587.38482585091663
 20
401.12059832205864
 30
0.0
 11
587.38482585091663
 21
216.12059832205875
 31
0.0
  0
LINE
  5
209
100
AcDbEntity
  8
0
  6
Continuous
 62
               7
100
AcDbLine
 10
583.38482585091663
 20
216.12059832205875
 30
0.0
 11
583.38482585091663
 21
401.12059832205864
 31
0.0
  0
LINE
  5
20A
100
AcDbEntity
  8
0
  6
Continuous
 62
               7
100
AcDbLine
 10
576.38482585091663
 20
401.12059832205864
 30
0.0
 11
588.38482585091663
 21
401.12059832205864
 31
0.0
  0
LINE
  5
20B
100
AcDbEntity
  8
0
  6
Continuous
 62
               7
100
AcDbLine
 10
588.38482585091663
 20
216.12059832205875
 30
0.0
 11
588.38482585091663
 21
401.12059832205864
 31
0.0
  0
LINE
  5
20C
100
AcDbEntity
  8
0
  6
Continuous
 62
               7
100
AcDbLine
 10
561.68482610921967
 20
422.92059832205882
 30
0.0
 11
561.68482610921967
 21
457.42059832205882
 31
0.0
  0
LINE
  5
20D
100
AcDbEntity
  8
0
  6
Continuous
 62
               7
100
AcDbLine
 10
561.68482610921967
 20
457.42059832205882
 30
0.0
 11
530.38482585091663
 21
457.42059832205882
 31
0.0
  0
LINE
  5
20E
100
AcDbEntity
  8
0
  6
Continuous
 62
               7
100
AcDbLine
 10
530.38482585091663
 20
457.42059832205882
 30
0.0
 11
530.38482585091663
 21
422.92059832205882
 31
0.0
  0
LINE
  5
20F
100
AcDbEntity
  8
0
  6
Continuous
 62
               6
100
AcDbLine
 10
363.79843737650992
 20
273.32402781125995
 30
0.0
 11
364.68860320911574
 21
273.08550859528339
 31
0.0
  0
LINE
  5
210
100
AcDbEntity
  8
0
  6
Continuous
 62
               4
100
AcDbLine
 10
625.38482585091663
 20
314.12059832205864
 30
0.0
 11
625.38482585091663
 21
417.12059832205887
 31
0.0
  0
LINE
  5
211
100
AcDbEntity
  8
0
  6
Continuous
 62
               4
100
AcDbLine
 10
595.38482585091663
 20
216.12059832205875
 30
0.0
 11
595.38482585091663
 21
386.62059832205864
 31
0.0
  0
LINE
  5
212
100
AcDbEntity
  8
0
  6
Continuous
 62
               4
100
AcDbLine
 10
625.38482585091663
 20
330.12059832205864
 30
0.0
 11
595.38482585091663
 21
330.12059832205864
 31
0.0
  0
LINE
  5
213
100
AcDbEntity
  8
0
  6
Continuous
 62
               4
100
AcDbLine
 10
565.38482585091685
 20
216.12059832205875
 30
0.0
 11
565.38482585091685
 21
386.62059832205864
 31
0.0
  0
LINE
  5
214
100
AcDbEntity
  8
0
  6
Continuous
 62
               4
100
AcDbLine
 10
595.38482585091663
 20
330.12059832205864
 30
0.0
 11
565.38482585091685
 21
330.12059832205864
 31
0.0
  0
LINE
  5
215
100
AcDbEntity
  8
0
  6
Continuous
 62
               4
100
AcDbLine
 10
525.38482585091663
 20
216.12059832205875
 30
0.0
 11
525.38482585091663
 21
421.12059832205864
 31
0.0
  0
LINE
  5
216
100
AcDbEntity
  8
0
  6
Continuous
 62
               4
100
AcDbLine
 10
565.38482585091685
 20
330.12059832205864
 30
0.0
 11
525.38482585091663
 21
330.12059832205864
 31
0.0
  0
LINE
  5
217
100
AcDbEntity
  8
0
  6
Continuous
 62
               4
100
AcDbLine
 10
525.38482585091663
 20
316.12059832205864
 30
0.0
 11
505.38482585091685
 21
316.12059832205864
 31
0.0
  0
LINE
  5
218
100
AcDbEntity
  8
0
  6
Continuous
 62
               4
100
AcDbLine
 10
625.38482585091663
 20
316.12059832205864
 30
0.0
 11
525.38482585091663
 21
316.12059832205864
 31
0.0
  0
LINE
  5
219
100
AcDbEntity
  8
0
  6
Continuous
 62
               4
100
AcDbLine
 10
505.38482585091685
 20
330.12059832205864
 30
0.0
 11
445.38482585091663
 21
330.12059832205864
 31
0.0
  0
LINE
  5
21A
100
AcDbEntity
  8
0
  6
Continuous
 62
               4
100
AcDbLine
 10
445.38482585091663
 20
330.12059832205864
 30
0.0
 11
385.38482585091663
 21
330.12059832205864
 31
0.0
  0
LINE
  5
21B
100
AcDbEntity
  8
0
  6
Continuous
 62
               4
100
AcDbLine
 10
385.38482585091663
 20
316.12059832205864
 30
0.0
 11
505.38482585091663
 21
316.12059832205864
 31
0.0
  0
LINE
  5
21C
100
AcDbEntity
  8
0
  6
Continuous
 62
               2
100
AcDbLine
 10
645.38482585091663
 20
434.12059937230174
 30
0.0
 11
645.38482585091663
 21
452.12059935699313
 31
0.0
  0
LINE
  5
21D
100
AcDbEntity
  8
0
  6
Continuous
 62
               6
100
AcDbLine
 10
505.38482585091663
 20
491.12059832205887
 30
0.0
 11
695.38482585091663
 21
491.12059832205887
 31
0.0
  0
LINE
  5
21E
100
AcDbEntity
  8
0
  6
Continuous
 62
               6
100
AcDbLine
 10
505.38482585091663
 20
491.12059832205887
 30
0.0
 11
505.38482585091663
 21
436.12059832205887
 31
0.0
  0
LINE
  5
21F
100
AcDbEntity
  8
0
  6
Continuous
 62
               6
100
AcDbLine
 10
250.38482585091674
 20
436.12059832205887
 30
0.0
 11
505.38482585091663
 21
436.12059832205887
 31
0.0
  0
LINE
  5
220
100
AcDbEntity
  8
0
  6
Continuous
 62
               4
100
AcDbLine
 10
319.38482585091663
 20
891.12059832205864
 30
0.0
 11
319.38482585091663
 21
491.12059832205887
 31
0.0
  0
LINE
  5
221
100
AcDbEntity
  8
0
  6
Continuous
 62
               4
100
AcDbLine
 10
319.38482585091663
 20
491.12059832205887
 30
0.0
 11
319.38482585091663
 21
436.12059832205887
 31
0.0
  0
LINE
  5
222
100
AcDbEntity
  8
0
  6
Continuous
 62
               4
100
AcDbLine
 10
1125.3848492616617
 20
891.12059415278213
 30
0.0
 11
1125.3848258509156
 21
436.12059937230174
 31
0.0
  0
LINE
  5
223
100
AcDbEntity
  8
0
  6
DOT
 62
               6
100
AcDbLine
 10
505.38482585091685
 20
231.55146785845329
 30
0.0
 11
489.95395631452232
 21
216.12059832205875
 31
0.0
  0
LINE
  5
224
100
AcDbEntity
  8
0
  6
DOT
 62
               6
100
AcDbLine
 10
505.38482585091685
 20
233.90849046240839
 30
0.0
 11
487.59693371056721
 21
216.12059832205875
 31
0.0
  0
LINE
  5
225
100
AcDbEntity
  8
0
  6
Continuous
 62
               7
100
AcDbLine
 10
965.38482585091663
 20
458.12059870091582
 30
0.0
 11
971.38482585091663
 21
458.12059870091582
 31
0.0
  0
LINE
  5
226
100
AcDbEntity
  8
0
  6
Continuous
 62
               6
100
AcDbLine
 10
643.38482585091663
 20
438.12059832205887
 30
0.0
 11
627.38482585091663
 21
438.12059832205887
 31
0.0
  0
LINE
  5
227
100
AcDbEntity
  8
0
  6
Continuous
 62
               6
100
AcDbLine
 10
625.38482585091663
 20
446.12059832205887
 30
0.0
 11
645.38482585091663
 21
446.12059832205887
 31
0.0
  0
LINE
  5
228
100
AcDbEntity
  8
0
  6
Continuous
 62
               6
100
AcDbLine
 10
645.38482585091663
 20
444.80688982307402
 30
0.0
 11
638.67706780661376
 21
438.09913177877115
 31
0.0
  0
LINE
  5
229
100
AcDbEntity
  8
0
  6
Continuous
 62
               6
100
AcDbLine
 10
643.87010722515527
 20
446.12059832205887
 30
0.0
 11
635.87010722515527
 21
438.12059832205887
 31
0.0
  0
LINE
  5
22A
100
AcDbEntity
  8
0
  6
Continuous
 62
               6
100
AcDbLine
 10
641.04168010040905
 20
446.12059832205887
 30
0.0
 11
633.04168010040905
 21
438.12059832205887
 31
0.0
  0
LINE
  5
22B
100
AcDbEntity
  8
0
  6
Continuous
 62
               6
100
AcDbLine
 10
638.21325297566284
 20
446.12059832205887
 30
0.0
 11
630.21325297566284
 21
438.12059832205887
 31
0.0
  0
LINE
  5
22C
100
AcDbEntity
  8
0
  6
Continuous
 62
               6
100
AcDbLine
 10
635.38482585091663
 20
446.12059832205887
 30
0.0
 11
627.38482585091663
 21
438.12059832205887
 31
0.0
  0
LINE
  5
22D
100
AcDbEntity
  8
0
  6
Continuous
 62
               6
100
AcDbLine
 10
632.55639872617064
 20
446.12059832205887
 30
0.0
 11
625.38482585091663
 21
438.94902544680485
 31
0.0
  0
LINE
  5
22E
100
AcDbEntity
  8
0
  6
Continuous
 62
               6
100
AcDbLine
 10
629.7279716014242
 20
446.12059832205887
 30
0.0
 11
625.38482585091663
 21
441.77745257155118
 31
0.0
  0
LINE
  5
22F
100
AcDbEntity
  8
0
  6
Continuous
 62
               6
100
AcDbLine
 10
626.89954447667822
 20
446.12059832205887
 30
0.0
 11
625.38482585091663
 21
444.60587969629728
 31
0.0
  0
LINE
  5
230
100
AcDbEntity
  8
0
  6
Continuous
 62
               6
100
AcDbLine
 10
626.44684596383593
 20
437.88700533388578
 30
0.0
 11
625.38482585091663
 21
438.94902544680485
 31
0.0
  0
LINE
  5
231
100
AcDbEntity
  8
0
  6
Continuous
 62
               6
100
AcDbLine
 10
629.04168010040905
 20
438.12059832205887
 30
0.0
 11
625.38482585091663
 21
441.77745257155118
 31
0.0
  0
LINE
  5
232
100
AcDbEntity
  8
0
  6
Continuous
 62
               6
100
AcDbLine
 10
631.87010722515527
 20
438.12059832205887
 30
0.0
 11
625.38482585091663
 21
444.60587969629739
 31
0.0
  0
LINE
  5
233
100
AcDbEntity
  8
0
  6
Continuous
 62
               6
100
AcDbLine
 10
634.69853434990148
 20
438.12059832205887
 30
0.0
 11
626.69853434990148
 21
446.12059832205887
 31
0.0
  0
LINE
  5
234
100
AcDbEntity
  8
0
  6
Continuous
 62
               6
100
AcDbLine
 10
637.52696147464769
 20
438.12059832205887
 30
0.0
 11
629.52696147464769
 21
446.12059832205887
 31
0.0
  0
LINE
  5
235
100
AcDbEntity
  8
0
  6
Continuous
 62
               6
100
AcDbLine
 10
640.38482585091663
 20
438.09116107053592
 30
0.0
 11
632.3553885993939
 21
446.12059832205887
 31
0.0
  0
LINE
  5
236
100
AcDbEntity
  8
0
  6
Continuous
 62
               6
100
AcDbLine
 10
643.18381572414012
 20
438.12059832205887
 30
0.0
 11
635.18381572414012
 21
446.12059832205887
 31
0.0
  0
LINE
  5
237
100
AcDbEntity
  8
0
  6
Continuous
 62
               6
100
AcDbLine
 10
645.38482585091663
 20
438.74801532002812
 30
0.0
 11
638.01224284888633
 21
446.12059832205887
 31
0.0
  0
LINE
  5
238
100
AcDbEntity
  8
0
  6
Continuous
 62
               4
100
AcDbLine
 10
632.88482585091663
 20
438.12059832205887
 30
0.0
 11
691.197203039069
 21
337.12059832205864
 31
0.0
  0
LINE
  5
239
100
AcDbEntity
  8
0
  6
Continuous
 62
               4
100
AcDbLine
 10
632.88482585091663
 20
438.12059832205887
 30
0.0
 11
637.12746653803617
 21
433.87795763493955
 31
0.0
  0
LINE
  5
23A
100
AcDbEntity
  8
0
  6
Continuous
 62
               4
100
AcDbLine
 10
632.88482585091663
 20
438.12059832205887
 30
0.0
 11
634.43774012153187
 21
432.3250433643243
 31
0.0
  0
LINE
  5
23B
100
AcDbEntity
  8
0
  6
Continuous
 62
               6
100
AcDbLine
 10
695.38482585091663
 20
718.86663087789702
 30
0.0
 11
412.63879329507847
 21
436.12059832205887
 31
0.0
  0
LINE
  5
23C
100
AcDbEntity
  8
0
  6
Continuous
 62
               6
100
AcDbLine
 10
95.384825850916741
 20
528.9885639660946
 30
0.0
 11
442.51686020688101
 21
876.12059832205887
 31
0.0
  0
LINE
  5
23D
100
AcDbEntity
  8
0
  6
Continuous
 62
               2
100
AcDbLine
 10
950.38482583534358
 20
436.12059870528958
 30
0.0
 11
649.38482585091663
 21
436.12059936792775
 31
0.0
  0
LINE
  5
23E
100
AcDbEntity
  8
0
  6
Continuous
 62
               6
100
AcDbLine
 10
645.38482585091663
 20
441.9784626983278
 30
0.0
 11
641.52696147464769
 21
438.12059832205887
 31
0.0
  0
LINE
  5
23F
100
AcDbEntity
  8
0
  6
Continuous
 62
               6
100
AcDbLine
 10
645.38482585091663
 20
439.1500355735817
 30
0.0
 11
644.18732578571928
 21
437.95253550838402
 31
0.0
  0
LINE
  5
240
100
AcDbEntity
  8
0
  6
Continuous
 62
               6
100
AcDbLine
 10
645.38482585091663
 20
441.57644244477433
 30
0.0
 11
640.84066997363254
 21
446.12059832205887
 31
0.0
  0
LINE
  5
241
100
AcDbEntity
  8
0
  6
Continuous
 62
               6
100
AcDbLine
 10
645.38482585091663
 20
444.40486956952054
 30
0.0
 11
643.66909709837876
 21
446.12059832205887
 31
0.0
  0
LINE
  5
242
100
AcDbEntity
  8
0
  6
Continuous
 62
               2
100
AcDbLine
 10
952.38482651057268
 20
451.62059874635293
 30
0.0
 11
952.38482574048714
 21
434.12059870091582
 31
0.0
  0
LINE
  5
243
100
AcDbEntity
  8
0
  6
Continuous
 62
               2
100
AcDbLine
 10
970.38482588171439
 20
451.62059870528958
 30
0.0
 11
952.38482651057268
 21
451.62059870528958
 31
0.0
  0
LINE
  5
244
100
AcDbEntity
  8
0
  6
Continuous
 62
               2
100
AcDbLine
 10
972.38482641715621
 20
453.12059870528958
 30
0.0
 11
952.38482659023668
 21
453.12059870528958
 31
0.0
  0
LINE
  5
245
100
AcDbEntity
  8
0
  6
Continuous
 62
               6
100
AcDbLine
 10
965.38482583108555
 20
472.12059945330543
 30
0.0
 11
959.38482583108555
 21
472.12059945330543
 31
0.0
  0
LINE
  5
246
100
AcDbEntity
  8
0
  6
Continuous
 62
               6
100
AcDbLine
 10
915.38482583108555
 20
472.12059945330543
 30
0.0
 11
915.38482583108555
 21
453.12059945330543
 31
0.0
  0
LINE
  5
247
100
AcDbEntity
  8
0
  6
Continuous
 62
               6
100
AcDbLine
 10
915.38482583108555
 20
453.12059945330543
 30
0.0
 11
965.38482583108555
 21
453.12059945330543
 31
0.0
  0
LINE
  5
248
100
AcDbEntity
  8
0
  6
Continuous
 62
               6
100
AcDbLine
 10
965.38482583108555
 20
453.12059945330543
 30
0.0
 11
965.38482583108555
 21
472.12059945330543
 31
0.0
  0
LINE
  5
249
100
AcDbEntity
  8
0
  6
Continuous
 62
               6
100
AcDbLine
 10
964.1848258310855
 20
470.92059945330539
 30
0.0
 11
960.58482583108537
 21
470.92059945330539
 31
0.0
  0
LINE
  5
24A
100
AcDbEntity
  8
0
  6
Continuous
 62
               6
100
AcDbLine
 10
916.58482583108537
 20
470.92059945330539
 30
0.0
 11
916.58482583108537
 21
454.32059945330548
 31
0.0
  0
LINE
  5
24B
100
AcDbEntity
  8
0
  6
Continuous
 62
               6
100
AcDbLine
 10
916.58482583108537
 20
454.32059945330548
 30
0.0
 11
964.1848258310855
 21
454.32059945330548
 31
0.0
  0
LINE
  5
24C
100
AcDbEntity
  8
0
  6
Continuous
 62
               6
100
AcDbLine
 10
964.1848258310855
 20
454.32059945330548
 30
0.0
 11
964.1848258310855
 21
470.92059945330539
 31
0.0
  0
LINE
  5
24D
100
AcDbEntity
  8
0
  6
Continuous
 62
               6
100
AcDbLine
 10
959.38482583108555
 20
468.12059945330543
 30
0.0
 11
959.38482583108555
 21
472.12059945330543
 31
0.0
  0
LINE
  5
24E
100
AcDbEntity
  8
0
  6
Continuous
 62
               6
100
AcDbLine
 10
921.38482583108555
 20
472.12059945330543
 30
0.0
 11
921.38482583108555
 21
468.12059945330543
 31
0.0
  0
LINE
  5
24F
100
AcDbEntity
  8
0
  6
Continuous
 62
               6
100
AcDbLine
 10
960.58482583108537
 20
468.12059945330543
 30
0.0
 11
959.38482583108555
 21
468.12059945330543
 31
0.0
  0
LINE
  5
250
100
AcDbEntity
  8
0
  6
Continuous
 62
               6
100
AcDbLine
 10
960.58482583108537
 20
468.12059945330543
 30
0.0
 11
960.58482583108537
 21
470.92059945330539
 31
0.0
  0
LINE
  5
251
100
AcDbEntity
  8
0
  6
Continuous
 62
               6
100
AcDbLine
 10
920.1848258310855
 20
470.92059945330539
 30
0.0
 11
920.1848258310855
 21
468.12059945330543
 31
0.0
  0
LINE
  5
252
100
AcDbEntity
  8
0
  6
Continuous
 62
               6
100
AcDbLine
 10
921.38482583108555
 20
472.12059945330543
 30
0.0
 11
915.38482583108555
 21
472.12059945330543
 31
0.0
  0
LINE
  5
253
100
AcDbEntity
  8
0
  6
Continuous
 62
               6
100
AcDbLine
 10
920.1848258310855
 20
470.92059945330539
 30
0.0
 11
916.58482583108537
 21
470.92059945330539
 31
0.0
  0
LINE
  5
254
100
AcDbEntity
  8
0
  6
Continuous
 62
               6
100
AcDbLine
 10
921.38482583108555
 20
468.12059945330543
 30
0.0
 11
920.1848258310855
 21
468.12059945330543
 31
0.0
  0
LINE
  5
255
100
AcDbEntity
  8
0
  6
Continuous
 62
               4
100
AcDbLine
 10
963.1848258310855
 20
511.12059945330543
 30
0.0
 11
917.58482583108537
 21
511.12059945330543
 31
0.0
  0
LINE
  5
256
100
AcDbEntity
  8
0
  6
Continuous
 62
               4
100
AcDbLine
 10
921.88482583108555
 20
473.12059945330543
 30
0.0
 11
917.58482583108537
 21
473.12059945330543
 31
0.0
  0
LINE
  5
257
100
AcDbEntity
  8
0
  6
Continuous
 62
               4
100
AcDbLine
 10
963.1848258310855
 20
465.12059945330543
 30
0.0
 11
917.58482583108537
 21
465.12059945330543
 31
0.0
  0
LINE
  5
258
100
AcDbEntity
  8
0
  6
Continuous
 62
               4
100
AcDbLine
 10
963.1848258310855
 20
465.12059945330543
 30
0.0
 11
963.1848258310855
 21
469.92059945330527
 31
0.0
  0
LINE
  5
259
100
AcDbEntity
  8
0
  6
Continuous
 62
               4
100
AcDbLine
 10
917.58482583108537
 20
469.92059945330527
 30
0.0
 11
917.58482583108537
 21
465.12059945330543
 31
0.0
  0
LINE
  5
25A
100
AcDbEntity
  8
0
  6
Continuous
 62
               4
100
AcDbLine
 10
921.88482583108555
 20
473.12059945330543
 30
0.0
 11
921.88482583108555
 21
468.12059945330543
 31
0.0
  0
LINE
  5
25B
100
AcDbEntity
  8
0
  6
Continuous
 62
               4
100
AcDbLine
 10
958.88482583108555
 20
468.12059945330543
 30
0.0
 11
958.88482583108555
 21
473.12059945330543
 31
0.0
  0
LINE
  5
25C
100
AcDbEntity
  8
0
  6
Continuous
 62
               4
100
AcDbLine
 10
958.88482583108555
 20
473.12059945330543
 30
0.0
 11
963.1848258310855
 21
473.12059945330543
 31
0.0
  0
LINE
  5
25D
100
AcDbEntity
  8
0
  6
Continuous
 62
               4
100
AcDbLine
 10
963.1848258310855
 20
469.92059945330527
 30
0.0
 11
960.58482583108537
 21
469.92059945330527
 31
0.0
  0
LINE
  5
25E
100
AcDbEntity
  8
0
  6
Continuous
 62
               4
100
AcDbLine
 10
960.58482583108537
 20
469.92059945330527
 30
0.0
 11
960.58482583108537
 21
468.12059945330543
 31
0.0
  0
LINE
  5
25F
100
AcDbEntity
  8
0
  6
Continuous
 62
               4
100
AcDbLine
 10
960.58482583108537
 20
468.12059945330543
 30
0.0
 11
958.88482583108555
 21
468.12059945330543
 31
0.0
  0
LINE
  5
260
100
AcDbEntity
  8
0
  6
Continuous
 62
               4
100
AcDbLine
 10
921.88482583108555
 20
468.12059945330543
 30
0.0
 11
920.1848258310855
 21
468.12059945330543
 31
0.0
  0
LINE
  5
261
100
AcDbEntity
  8
0
  6
Continuous
 62
               4
100
AcDbLine
 10
920.1848258310855
 20
468.12059945330543
 30
0.0
 11
920.1848258310855
 21
469.92059945330527
 31
0.0
  0
LINE
  5
262
100
AcDbEntity
  8
0
  6
Continuous
 62
               4
100
AcDbLine
 10
920.1848258310855
 20
469.92059945330527
 30
0.0
 11
917.58482583108537
 21
469.92059945330527
 31
0.0
  0
LINE
  5
263
100
AcDbEntity
  8
0
  6
Continuous
 62
               4
100
AcDbLine
 10
917.58482583108537
 20
473.12059945330543
 30
0.0
 11
917.58482583108537
 21
511.12059945330543
 31
0.0
  0
LINE
  5
264
100
AcDbEntity
  8
0
  6
Continuous
 62
               4
100
AcDbLine
 10
963.1848258310855
 20
473.12059945330543
 30
0.0
 11
963.1848258310855
 21
511.12059945330543
 31
0.0
  0
LINE
  5
265
100
AcDbEntity
  8
0
  6
Continuous
 62
               6
100
AcDbLine
 10
965.38482583108555
 20
510.12059945330543
 30
0.0
 11
963.1848258310855
 21
510.12059945330543
 31
0.0
  0
LINE
  5
266
100
AcDbEntity
  8
0
  6
Continuous
 62
               6
100
AcDbLine
 10
965.38482583108555
 20
472.12059945330543
 30
0.0
 11
958.88482583108555
 21
472.12059945330543
 31
0.0
  0
LINE
  5
267
100
AcDbEntity
  8
0
  6
Continuous
 62
               6
100
AcDbLine
 10
965.38482583108555
 20
510.12059945330543
 30
0.0
 11
965.38482583108555
 21
472.12059945330543
 31
0.0
  0
LINE
  5
268
100
AcDbEntity
  8
0
  6
Continuous
 62
               6
100
AcDbLine
 10
917.58482583108537
 20
510.12059945330543
 30
0.0
 11
910.38482583108555
 21
510.12059945330543
 31
0.0
  0
LINE
  5
269
100
AcDbEntity
  8
0
  6
DOT
 62
               6
100
AcDbLine
 10
963.1848258310855
 20
510.12059945330543
 30
0.0
 11
917.58482583108537
 21
510.12059945330543
 31
0.0
  0
LINE
  5
26A
100
AcDbEntity
  8
0
  6
DASHED
 62
               6
100
AcDbLine
 10
917.58482583108537
 20
508.72059945330557
 30
0.0
 11
910.38482583108555
 21
508.72059945330557
 31
0.0
  0
LINE
  5
26B
100
AcDbEntity
  8
0
  6
DASHED
 62
               6
100
AcDbLine
 10
965.38482583108555
 20
473.52059945330541
 30
0.0
 11
963.1848258310855
 21
473.52059945330541
 31
0.0
  0
LINE
  5
26C
100
AcDbEntity
  8
0
  6
DASHED
 62
               6
100
AcDbLine
 10
965.38482583108555
 20
508.72059945330557
 30
0.0
 11
963.1848258310855
 21
508.72059945330557
 31
0.0
  0
LINE
  5
26D
100
AcDbEntity
  8
0
  6
DASHED
 62
               6
100
AcDbLine
 10
917.58482583108537
 20
473.52059945330541
 30
0.0
 11
910.38482583108555
 21
473.52059945330541
 31
0.0
  0
LINE
  5
26E
100
AcDbEntity
  8
0
  6
Continuous
 62
               7
100
AcDbLine
 10
910.38482583108555
 20
469.12059945330543
 30
0.0
 11
910.38482583108555
 21
573.12059870091593
 31
0.0
  0
LINE
  5
26F
100
AcDbEntity
  8
0
  6
Continuous
 62
               7
100
AcDbLine
 10
885.38482583108555
 20
469.12059945330543
 30
0.0
 11
885.38482583108555
 21
573.12059870091593
 31
0.0
  0
LINE
  5
270
100
AcDbEntity
  8
0
  6
Continuous
 62
               7
100
AcDbLine
 10
910.38482583108555
 20
469.12059945330543
 30
0.0
 11
885.38482583108555
 21
469.12059945330543
 31
0.0
  0
LINE
  5
271
100
AcDbEntity
  8
0
  6
Continuous
 62
               6
100
AcDbLine
 10
885.38482583108555
 20
472.12059945330543
 30
0.0
 11
822.68482584313017
 21
472.12059945330543
 31
0.0
  0
LINE
  5
272
100
AcDbEntity
  8
0
  6
DASHED
 62
               6
100
AcDbLine
 10
885.38482583108555
 20
508.72059945330557
 30
0.0
 11
822.68482584313017
 21
508.72059945330557
 31
0.0
  0
LINE
  5
273
100
AcDbEntity
  8
0
  6
DASHED
 62
               6
100
AcDbLine
 10
885.38482583108555
 20
473.52059334978992
 30
0.0
 11
822.68482584313017
 21
473.52059536394995
 31
0.0
  0
LINE
  5
274
100
AcDbEntity
  8
0
  6
DOT
 62
               7
100
AcDbLine
 10
910.38482583108555
 20
472.12059945330543
 30
0.0
 11
885.38482583108555
 21
472.12059945330543
 31
0.0
  0
LINE
  5
275
100
AcDbEntity
  8
0
  6
DOT
 62
               7
100
AcDbLine
 10
910.38482583108555
 20
510.12059945330543
 30
0.0
 11
885.38482583108555
 21
510.12059945330543
 31
0.0
  0
LINE
  5
276
100
AcDbEntity
  8
0
  6
Continuous
 62
               7
100
AcDbLine
 10
910.38482583108555
 20
520.12059945330543
 30
0.0
 11
885.38482583108555
 21
520.12059945330543
 31
0.0
  0
LINE
  5
277
100
AcDbEntity
  8
0
  6
Continuous
 62
               6
100
AcDbLine
 10
921.88482583108555
 20
472.12059945330543
 30
0.0
 11
910.38482583108555
 21
472.12059945330543
 31
0.0
  0
LINE
  5
278
100
AcDbEntity
  8
0
  6
DOT
 62
               6
100
AcDbLine
 10
958.88482583108555
 20
472.12059945330543
 30
0.0
 11
921.88482583108555
 21
472.12059945330543
 31
0.0
  0
LINE
  5
279
100
AcDbEntity
  8
0
  6
Continuous
 62
               6
100
AcDbLine
 10
673.38482585091663
 20
472.12059935699313
 30
0.0
 11
667.38482585091663
 21
472.12059935699313
 31
0.0
  0
LINE
  5
27A
100
AcDbEntity
  8
0
  6
Continuous
 62
               6
100
AcDbLine
 10
625.38482585091663
 20
472.12059935699313
 30
0.0
 11
625.38482585091663
 21
453.12059935699313
 31
0.0
  0
LINE
  5
27B
100
AcDbEntity
  8
0
  6
Continuous
 62
               6
100
AcDbLine
 10
625.38482585091663
 20
453.12059935699313
 30
0.0
 11
673.38482585091663
 21
453.12059935699313
 31
0.0
  0
LINE
  5
27C
100
AcDbEntity
  8
0
  6
Continuous
 62
               6
100
AcDbLine
 10
673.38482585091663
 20
453.12059935699313
 30
0.0
 11
673.38482585091663
 21
472.12059935699313
 31
0.0
  0
LINE
  5
27D
100
AcDbEntity
  8
0
  6
Continuous
 62
               6
100
AcDbLine
 10
672.18482585091681
 20
470.92059935699331
 30
0.0
 11
668.58482585091667
 21
470.92059935699331
 31
0.0
  0
LINE
  5
27E
100
AcDbEntity
  8
0
  6
Continuous
 62
               6
100
AcDbLine
 10
626.5848258509169
 20
470.92059935699331
 30
0.0
 11
626.5848258509169
 21
454.32059935699317
 31
0.0
  0
LINE
  5
27F
100
AcDbEntity
  8
0
  6
Continuous
 62
               6
100
AcDbLine
 10
626.5848258509169
 20
454.32059935699317
 30
0.0
 11
672.18482585091681
 21
454.32059935699317
 31
0.0
  0
LINE
  5
280
100
AcDbEntity
  8
0
  6
Continuous
 62
               6
100
AcDbLine
 10
672.18482585091681
 20
454.32059935699317
 30
0.0
 11
672.18482585091681
 21
470.92059935699331
 31
0.0
  0
LINE
  5
281
100
AcDbEntity
  8
0
  6
Continuous
 62
               6
100
AcDbLine
 10
667.38482585091663
 20
468.12059935699313
 30
0.0
 11
667.38482585091663
 21
472.12059935699313
 31
0.0
  0
LINE
  5
282
100
AcDbEntity
  8
0
  6
Continuous
 62
               6
100
AcDbLine
 10
631.38481364388565
 20
472.12059935699313
 30
0.0
 11
631.38482585091663
 21
468.12059935699313
 31
0.0
  0
LINE
  5
283
100
AcDbEntity
  8
0
  6
Continuous
 62
               6
100
AcDbLine
 10
668.58482585091667
 20
468.12059935699313
 30
0.0
 11
667.38482585091663
 21
468.12059935699313
 31
0.0
  0
LINE
  5
284
100
AcDbEntity
  8
0
  6
Continuous
 62
               6
100
AcDbLine
 10
668.58482585091667
 20
468.12059935699313
 30
0.0
 11
668.58482585091667
 21
470.92059935699331
 31
0.0
  0
LINE
  5
285
100
AcDbEntity
  8
0
  6
Continuous
 62
               6
100
AcDbLine
 10
630.18482585091681
 20
470.92059935699331
 30
0.0
 11
630.18482585091681
 21
468.12059935699313
 31
0.0
  0
LINE
  5
286
100
AcDbEntity
  8
0
  6
Continuous
 62
               6
100
AcDbLine
 10
631.38482585091663
 20
472.12059935699313
 30
0.0
 11
625.38482585091663
 21
472.12059935699313
 31
0.0
  0
LINE
  5
287
100
AcDbEntity
  8
0
  6
Continuous
 62
               6
100
AcDbLine
 10
630.18481364388538
 20
470.92061766754011
 30
0.0
 11
626.5848258509169
 21
470.92059935699331
 31
0.0
  0
LINE
  5
288
100
AcDbEntity
  8
0
  6
Continuous
 62
               6
100
AcDbLine
 10
631.38482585091663
 20
468.12059935699313
 30
0.0
 11
630.18482585091681
 21
468.12059935699313
 31
0.0
  0
LINE
  5
289
100
AcDbEntity
  8
0
  6
Continuous
 62
               6
100
AcDbLine
 10
695.38482585091663
 20
472.12059945330543
 30
0.0
 11
695.38482585091663
 21
510.12059945330543
 31
0.0
  0
LINE
  5
28A
100
AcDbEntity
  8
0
  6
Continuous
 62
               4
100
AcDbLine
 10
820.38482585091663
 20
1017.1205983220589
 30
0.0
 11
445.38482585091663
 21
1017.1205983220589
 31
0.0
  0
LINE
  5
28B
100
AcDbEntity
  8
0
  6
DASHED
 62
               6
100
AcDbLine
 10
95.384825850916741
 20
866.12059832205864
 30
0.0
 11
820.38482585091663
 21
866.12059832205864
 31
0.0
  0
LINE
  5
28C
100
AcDbEntity
  8
0
  6
DASHED
 62
               6
100
AcDbLine
 10
695.38482585091663
 20
726.12059832205864
 30
0.0
 11
695.38482585091663
 21
866.12059832205864
 31
0.0
  0
LINE
  5
28D
100
AcDbEntity
  8
0
  6
DASHED
 62
               6
100
AcDbLine
 10
195.38482585091663
 20
491.12059832205887
 30
0.0
 11
695.38482585091663
 21
866.12059832205864
 31
0.0
  0
LINE
  5
28E
100
AcDbEntity
  8
0
  6
DASHED
 62
               6
100
AcDbLine
 10
195.38482585091663
 20
866.12059832205864
 30
0.0
 11
695.38482585091663
 21
491.12059832205887
 31
0.0
  0
LINE
  5
28F
100
AcDbEntity
  8
0
  6
DASHED
 62
               6
100
AcDbLine
 10
195.38482585091663
 20
866.12059832205864
 30
0.0
 11
195.38482585091663
 21
491.12059832205887
 31
0.0
  0
LINE
  5
290
100
AcDbEntity
  8
0
  6
Continuous
 62
               6
100
AcDbLine
 10
95.384825850916741
 20
516.12059832205887
 30
0.0
 11
170.38482585091674
 21
516.12059832205887
 31
0.0
  0
LINE
  5
291
100
AcDbEntity
  8
0
  6
Continuous
 62
               6
100
AcDbLine
 10
170.38482585091674
 20
516.12059832205887
 30
0.0
 11
250.38482585091674
 21
436.12059832205887
 31
0.0
  0
LINE
  5
292
100
AcDbEntity
  8
0
  6
Continuous
 62
               6
100
AcDbLine
 10
95.384825850916741
 20
748.19166613392417
 30
0.0
 11
223.31375803905109
 21
876.12059832205887
 31
0.0
  0
LINE
  5
293
100
AcDbEntity
  8
0
  6
Continuous
 62
               6
100
AcDbLine
 10
216.24269022718556
 20
876.12059832205887
 30
0.0
 11
95.384825850916741
 21
755.26273394578971
 31
0.0
  0
LINE
  5
294
100
AcDbEntity
  8
0
  6
Continuous
 62
               6
100
AcDbLine
 10
95.384825850916741
 20
741.12059832205864
 30
0.0
 11
230.38482585091663
 21
876.12059832205887
 31
0.0
  0
LINE
  5
295
100
AcDbEntity
  8
0
  6
Continuous
 62
               6
100
AcDbLine
 10
965.38482585091663
 20
585.12059832205887
 30
0.0
 11
839.38482585091685
 21
585.12059832205887
 31
0.0
  0
LINE
  5
296
100
AcDbEntity
  8
0
  6
Continuous
 62
               6
100
AcDbLine
 10
965.38482585091663
 20
555.12059832205887
 30
0.0
 11
910.38482583108555
 21
555.12059832205887
 31
0.0
  0
LINE
  5
297
100
AcDbEntity
  8
0
  6
Continuous
 62
               6
100
AcDbLine
 10
839.38482585091685
 20
585.12059832205887
 30
0.0
 11
839.38482585091685
 21
555.12059832205887
 31
0.0
  0
LINE
  5
298
100
AcDbEntity
  8
0
  6
Continuous
 62
               6
100
AcDbLine
 10
965.38482585091663
 20
585.12059832205887
 30
0.0
 11
965.38482585091663
 21
555.12059832205887
 31
0.0
  0
LINE
  5
299
100
AcDbEntity
  8
0
  6
Continuous
 62
               6
100
AcDbLine
 10
965.38482585091663
 20
582.12059832205887
 30
0.0
 11
839.38482585091685
 21
582.12059832205887
 31
0.0
  0
LINE
  5
29A
100
AcDbEntity
  8
0
  6
Continuous
 62
               7
100
AcDbLine
 10
885.38482583108555
 20
573.12059870091593
 30
0.0
 11
910.38482583108555
 21
573.12059870091593
 31
0.0
  0
LINE
  5
29B
100
AcDbEntity
  8
0
  6
Continuous
 62
               6
100
AcDbLine
 10
885.38482583108555
 20
555.12059832205887
 30
0.0
 11
839.38482585091685
 21
555.12059832205887
 31
0.0
  0
LINE
  5
29C
100
AcDbEntity
  8
0
  6
Continuous
 62
               2
100
AcDbLine
 10
950.38482647708145
 20
453.12059870528958
 30
0.0
 11
950.38482583534358
 21
436.12059870528958
 31
0.0
  0
LINE
  5
29D
100
AcDbEntity
  8
0
  6
Continuous
 62
               2
100
AcDbLine
 10
952.38482574048714
 20
434.12059870091582
 30
0.0
 11
922.88482586967768
 21
434.12059822884692
 31
0.0
  0
LINE
  5
29E
100
AcDbEntity
  8
0
  6
Continuous
 62
               2
100
AcDbLine
 10
932.34867555119251
 20
435.94857730679132
 30
0.0
 11
922.88482586014072
 21
435.12059820023683
 31
0.0
  0
LINE
  5
29F
100
AcDbEntity
  8
0
  6
Continuous
 62
               2
100
AcDbLine
 10
649.38482585091663
 20
436.12059832205887
 30
0.0
 11
649.38482585091663
 21
453.12059936792775
 31
0.0
  0
LINE
  5
2A0
100
AcDbEntity
  8
0
  6
Continuous
 62
               2
100
AcDbLine
 10
674.88482584982341
 20
434.12059926404902
 30
0.0
 11
645.38482585091663
 21
434.12059937230174
 31
0.0
  0
LINE
  5
2A1
100
AcDbEntity
  8
0
  6
Continuous
 62
               2
100
AcDbLine
 10
627.38482585091663
 20
452.12059935699313
 30
0.0
 11
645.38482585091663
 21
452.12059935699313
 31
0.0
  0
LINE
  5
2A2
100
AcDbEntity
  8
0
  6
Continuous
 62
               2
100
AcDbLine
 10
674.88482585201029
 20
435.12059926404879
 30
0.0
 11
665.4209762208601
 21
435.94857884094358
 31
0.0
  0
LINE
  5
2A3
100
AcDbEntity
  8
0
  6
Continuous
 62
               4
100
AcDbLine
 10
489.38482585091663
 20
386.12059832205864
 30
0.0
 11
553.88482585091663
 21
386.12059832205864
 31
0.0
  0
LINE
  5
2A4
100
AcDbEntity
  8
0
  6
Continuous
 62
               4
100
AcDbLine
 10
489.38482585091663
 20
421.12059832205864
 30
0.0
 11
521.38482585091663
 21
421.12059832205864
 31
0.0
  0
LINE
  5
2A5
100
AcDbEntity
  8
0
  6
Continuous
 62
               4
100
AcDbLine
 10
491.38482585091663
 20
386.12059832205864
 30
0.0
 11
491.38482585091663
 21
421.12059832205864
 31
0.0
  0
LINE
  5
2A6
100
AcDbEntity
  8
0
  6
Continuous
 62
               4
100
AcDbLine
 10
491.38482585091663
 20
421.12059832205864
 30
0.0
 11
491.38482585091663
 21
491.12059832205887
 31
0.0
  0
LINE
  5
2A7
100
AcDbEntity
  8
0
  6
Continuous
 62
               4
100
AcDbLine
 10
445.38482585091663
 20
754.12059832205887
 30
0.0
 11
695.38482585091663
 21
754.12059832205887
 31
0.0
  0
LINE
  5
2A8
100
AcDbEntity
  8
0
  6
Continuous
 62
               4
100
AcDbLine
 10
695.38482585091663
 20
754.12059832205887
 30
0.0
 11
895.38482585091663
 21
754.12059832205887
 31
0.0
  0
LINE
  5
2A9
100
AcDbEntity
  8
0
  6
Continuous
 62
               4
100
AcDbLine
 10
695.38482585091663
 20
740.12059832205864
 30
0.0
 11
820.38482585091663
 21
740.12059832205864
 31
0.0
  0
LINE
  5
2AA
100
AcDbEntity
  8
0
  6
Continuous
 62
               4
100
AcDbLine
 10
845.38482585091663
 20
605.12059832205887
 30
0.0
 11
845.38482585091663
 21
742.12059832205864
 31
0.0
  0
LINE
  5
2AB
100
AcDbEntity
  8
0
  6
Continuous
 62
               4
100
AcDbLine
 10
820.38482585091663
 20
740.12059832205864
 30
0.0
 11
845.38482585091663
 21
740.12059832205864
 31
0.0
  0
LINE
  5
2AC
100
AcDbEntity
  8
0
  6
Continuous
 62
               4
100
AcDbLine
 10
845.38482585091663
 20
740.12059832205864
 30
0.0
 11
895.38482585091663
 21
740.12059832205864
 31
0.0
  0
LINE
  5
2AD
100
AcDbEntity
  8
0
  6
Continuous
 62
               4
100
AcDbLine
 10
645.38482585091663
 20
384.12059832205864
 30
0.0
 11
645.38482585091663
 21
430.12059937230174
 31
0.0
  0
LINE
  5
2AE
100
AcDbEntity
  8
0
  6
Continuous
 62
               4
100
AcDbLine
 10
625.38482585091663
 20
386.12059832205864
 30
0.0
 11
645.38482585091663
 21
386.12059832205864
 31
0.0
  0
LINE
  5
2AF
100
AcDbEntity
  8
0
  6
Continuous
 62
               4
100
AcDbLine
 10
675.38482585091663
 20
398.12059832205864
 30
0.0
 11
675.38482585091663
 21
430.62059926404879
 31
0.0
  0
LINE
  5
2B0
100
AcDbEntity
  8
0
  6
Continuous
 62
               4
100
AcDbLine
 10
645.38482585091663
 20
400.12059832205864
 30
0.0
 11
675.38482585091663
 21
400.12059832205864
 31
0.0
  0
LINE
  5
2B1
100
AcDbEntity
  8
0
  6
Continuous
 62
               4
100
AcDbLine
 10
922.38482585060422
 20
398.12059832205864
 30
0.0
 11
922.38482585060422
 21
430.62059821454181
 31
0.0
  0
LINE
  5
2B2
100
AcDbEntity
  8
0
  6
Continuous
 62
               4
100
AcDbLine
 10
675.38482585091663
 20
400.12059832205864
 30
0.0
 11
922.38482585060422
 21
400.12059832205864
 31
0.0
  0
LINE
  5
2B3
100
AcDbEntity
  8
0
  6
Continuous
 62
               4
100
AcDbLine
 10
952.38482574048714
 20
384.12059832205864
 30
0.0
 11
952.38482574048714
 21
430.12059870091582
 31
0.0
  0
LINE
  5
2B4
100
AcDbEntity
  8
0
  6
Continuous
 62
               4
100
AcDbLine
 10
922.38482585060422
 20
400.12059832205864
 30
0.0
 11
952.38482574048714
 21
400.12059832205864
 31
0.0
  0
LINE
  5
2B5
100
AcDbEntity
  8
0
  6
Continuous
 62
               4
100
AcDbLine
 10
972.38482497211328
 20
370.12059832205864
 30
0.0
 11
972.38482497211328
 21
412.72059870211683
 31
0.0
  0
LINE
  5
2B6
100
AcDbEntity
  8
0
  6
Continuous
 62
               4
100
AcDbLine
 10
952.38482574048714
 20
386.12059832205864
 30
0.0
 11
972.38482497211328
 21
386.12059832205864
 31
0.0
  0
LINE
  5
2B7
100
AcDbEntity
  8
0
  6
Continuous
 62
               4
100
AcDbLine
 10
645.38482585091663
 20
386.12059832205864
 30
0.0
 11
952.38482574048714
 21
386.12059832205864
 31
0.0
  0
LINE
  5
2B8
100
AcDbEntity
  8
0
  6
Continuous
 62
               4
100
AcDbLine
 10
625.38482585091663
 20
372.12059832205864
 30
0.0
 11
972.38482497211328
 21
372.12059832205864
 31
0.0
  0
LINE
  5
2B9
100
AcDbEntity
  8
0
  6
Continuous
 62
               4
100
AcDbLine
 10
660.13482585037002
 20
434.12059931817521
 30
0.0
 11
708.05489876821696
 21
351.12059832205864
 31
0.0
  0
LINE
  5
2BA
100
AcDbEntity
  8
0
  6
Continuous
 62
               4
100
AcDbLine
 10
818.88482584313022
 20
436.12059903660884
 30
0.0
 11
880.08395478977593
 21
330.12059832205864
 31
0.0
  0
LINE
  5
2BB
100
AcDbEntity
  8
0
  6
Continuous
 62
               4
100
AcDbLine
 10
818.88482584313022
 20
436.12059903660884
 30
0.0
 11
823.12746653024954
 21
431.87795834948952
 31
0.0
  0
LINE
  5
2BC
100
AcDbEntity
  8
0
  6
Continuous
 62
               4
100
AcDbLine
 10
818.88482584313022
 20
436.12059903660884
 30
0.0
 11
820.43774011374524
 21
430.32504407887427
 31
0.0
  0
LINE
  5
2BD
100
AcDbEntity
  8
0
  6
Continuous
 62
               4
100
AcDbLine
 10
880.08395478977593
 20
330.12059832205864
 30
0.0
 11
946.16692855443955
 21
330.12059832205864
 31
0.0
  0
LINE
  5
2BE
100
AcDbEntity
  8
0
  6
Continuous
 62
               4
100
AcDbLine
 10
927.63482580508219
 20
434.12059846488137
 30
0.0
 11
971.5134463459525
 21
358.12059832205841
 31
0.0
  0
LINE
  5
2BF
100
AcDbEntity
  8
0
  6
Continuous
 62
               4
100
AcDbLine
 10
927.63482580508219
 20
434.12059846488137
 30
0.0
 11
931.87746649220151
 21
429.87795777776205
 31
0.0
  0
LINE
  5
2C0
100
AcDbEntity
  8
0
  6
Continuous
 62
               4
100
AcDbLine
 10
927.63482580508219
 20
434.12059846488137
 30
0.0
 11
929.18774007569721
 21
428.32504350714692
 31
0.0
  0
LINE
  5
2C1
100
AcDbEntity
  8
0
  6
Continuous
 62
               4
100
AcDbLine
 10
649.38482585091663
 20
454.32059937230167
 30
0.0
 11
613.70457982135588
 21
516.12059832205887
 31
0.0
  0
LINE
  5
2C2
100
AcDbEntity
  8
0
  6
Continuous
 62
               4
100
AcDbLine
 10
649.38482585091663
 20
454.32059937230167
 30
0.0
 11
645.14218516379754
 21
458.5632400594211
 31
0.0
  0
LINE
  5
2C3
100
AcDbEntity
  8
0
  6
Continuous
 62
               4
100
AcDbLine
 10
649.38482585091663
 20
454.32059937230167
 30
0.0
 11
647.83191158030161
 21
460.11615433003612
 31
0.0
  0
LINE
  5
2C4
100
AcDbEntity
  8
0
  6
Continuous
 62
               4
100
AcDbLine
 10
613.70457982135588
 20
516.12059832205887
 30
0.0
 11
537.82965213334148
 21
516.12059832205887
 31
0.0
  0
LINE
  5
2C5
100
AcDbEntity
  8
0
  6
Continuous
 62
               3
100
AcDbLine
 10
755.38482585091663
 20
421.12059908800143
 30
0.0
 11
755.38482585091663
 21
523.12059870091582
 31
0.0
  0
LINE
  5
2C6
100
AcDbEntity
  8
0
  6
Continuous
 62
               3
100
AcDbLine
 10
755.38482585091663
 20
421.12059908800143
 30
0.0
 11
725.38482585091663
 21
421.12059915360919
 31
0.0
  0
LINE
  5
2C7
100
AcDbEntity
  8
0
  6
Continuous
 62
               3
100
AcDbLine
 10
755.38482585091663
 20
523.12059870091582
 30
0.0
 11
725.38482585091663
 21
523.12059870091582
 31
0.0
  0
LINE
  5
2C8
100
AcDbEntity
  8
0
  6
Continuous
 62
               3
100
AcDbLine
 10
735.38482585091663
 20
525.80009062522686
 30
0.0
 11
725.38482585091663
 21
523.12059870091582
 31
0.0
  0
LINE
  5
2C9
100
AcDbEntity
  8
0
  6
Continuous
 62
               3
100
AcDbLine
 10
735.38482585091663
 20
523.12059870091582
 30
0.0
 11
735.38482585091663
 21
525.80009062522686
 31
0.0
  0
LINE
  5
2CA
100
AcDbEntity
  8
0
  6
Continuous
 62
               3
100
AcDbLine
 10
735.38482585091663
 20
418.44110722929804
 30
0.0
 11
725.38482585091663
 21
421.12059915360931
 31
0.0
  0
LINE
  5
2CB
100
AcDbEntity
  8
0
  6
Continuous
 62
               3
100
AcDbLine
 10
735.38482585091663
 20
421.12059915360931
 30
0.0
 11
735.38482585091663
 21
418.44110722929804
 31
0.0
  0
LINE
  5
2CC
100
AcDbEntity
  8
0
  6
DASHED
 62
               6
100
AcDbLine
 10
505.38482585091663
 20
491.12059832205887
 30
0.0
 11
195.38482585091663
 21
491.12059832205887
 31
0.0
  0
LINE
  5
2CD
100
AcDbEntity
  8
0
  6
Continuous
 62
               4
100
AcDbLine
 10
347.38482585091663
 20
891.12059832205864
 30
0.0
 11
347.38482585091663
 21
876.12059832205887
 31
0.0
  0
LINE
  5
2CE
100
AcDbEntity
  8
0
  6
Continuous
 62
               4
100
AcDbLine
 10
853.38482585091663
 20
591.12059832205887
 30
0.0
 11
853.38482585091663
 21
510.12059945330543
 31
0.0
  0
LINE
  5
2CF
100
AcDbEntity
  8
0
  6
Continuous
 62
               4
100
AcDbLine
 10
853.38482585091663
 20
510.12059945330543
 30
0.0
 11
853.38482585091663
 21
472.12059945330543
 31
0.0
  0
LINE
  5
2D0
100
AcDbEntity
  8
0
  6
Continuous
 62
               4
100
AcDbLine
 10
853.38482585091663
 20
472.12059945330543
 30
0.0
 11
853.38482585091663
 21
453.12059897646827
 31
0.0
  0
LINE
  5
2D1
100
AcDbEntity
  8
0
  6
Continuous
 62
               4
100
AcDbLine
 10
853.38482585091663
 20
453.12059822407855
 30
0.0
 11
853.38482585091663
 21
438.12059870528958
 31
0.0
  0
LINE
  5
2D2
100
AcDbEntity
  8
0
  6
DASHDOT
 62
               4
100
AcDbLine
 10
635.38482585091663
 20
470.12059935699313
 30
0.0
 11
635.38482585091663
 21
447.12059935699313
 31
0.0
  0
LINE
  5
2D3
100
AcDbEntity
  8
0
  6
Continuous
 62
               6
100
AcDbLine
 10
885.38482583108555
 20
510.12059945330543
 30
0.0
 11
822.68482584313017
 21
510.12059945330543
 31
0.0
  0
LINE
  5
2D4
100
AcDbEntity
  8
0
  6
Continuous
 62
               4
100
AcDbLine
 10
871.13502527076355
 20
445.6205989223414
 30
0.0
 11
929.73607794008387
 21
344.12059832205864
 31
0.0
  0
LINE
  5
2D5
100
AcDbEntity
  8
0
  6
Continuous
 62
               4
100
AcDbLine
 10
929.73607794008387
 20
344.12059832205864
 30
0.0
 11
1025.6344666933019
 21
344.12059832205864
 31
0.0
  0
LINE
  5
2D6
100
AcDbEntity
  8
0
  6
Continuous
 62
               4
100
AcDbLine
 10
871.13502527076355
 20
445.6205989223414
 30
0.0
 11
875.37766595788287
 21
441.3779582352222
 31
0.0
  0
LINE
  5
2D7
100
AcDbEntity
  8
0
  6
Continuous
 62
               4
100
AcDbLine
 10
871.13502527076355
 20
445.6205989223414
 30
0.0
 11
872.68793954137857
 21
439.82504396460718
 31
0.0
  0
LINE
  5
2D8
100
AcDbEntity
  8
0
  6
Continuous
 62
               3
100
AcDbLine
 10
947.3848259127036
 20
438.12059871185033
 30
0.0
 11
652.38482585091663
 21
438.12059935699313
 31
0.0
  0
LINE
  5
2D9
100
AcDbEntity
  8
0
  6
Continuous
 62
               3
100
AcDbLine
 10
947.38482647894273
 20
453.12059871185033
 30
0.0
 11
652.38482585091663
 21
453.12059935699313
 31
0.0
  0
LINE
  5
2DA
100
AcDbEntity
  8
0
  6
Continuous
 62
               3
100
AcDbLine
 10
652.38482585091663
 20
438.12059935699313
 30
0.0
 11
652.38482585091663
 21
453.12059935699313
 31
0.0
  0
LINE
  5
2DB
100
AcDbEntity
  8
0
  6
Continuous
 62
               3
100
AcDbLine
 10
947.38482647894273
 20
453.12059871185033
 30
0.0
 11
947.3848259127036
 21
438.12059871185033
 31
0.0
  0
LINE
  5
2DC
100
AcDbEntity
  8
0
  6
Continuous
 62
               7
100
AcDbLine
 10
947.38482647019521
 20
449.12059871185033
 30
0.0
 11
862.19422723877244
 21
449.12059889815578
 31
0.0
  0
LINE
  5
2DD
100
AcDbEntity
  8
0
  6
Continuous
 62
               7
100
AcDbLine
 10
947.38482646144769
 20
445.12059871185033
 30
0.0
 11
859.8848261649299
 21
445.12059890320631
 31
0.0
  0
LINE
  5
2DE
100
AcDbEntity
  8
0
  6
Continuous
 62
               7
100
AcDbLine
 10
947.38482645269994
 20
441.12059871185033
 30
0.0
 11
857.57542509108737
 21
441.12059890825685
 31
0.0
  0
LINE
  5
2DF
100
AcDbEntity
  8
0
  6
Continuous
 62
               7
100
AcDbLine
 10
742.19422723877244
 20
449.12059916058672
 30
0.0
 11
652.38482584216888
 21
449.12059935699313
 31
0.0
  0
LINE
  5
2E0
100
AcDbEntity
  8
0
  6
Continuous
 62
               7
100
AcDbLine
 10
739.8848261649299
 20
445.12059916563726
 30
0.0
 11
652.38482583342136
 21
445.12059935699313
 31
0.0
  0
LINE
  5
2E1
100
AcDbEntity
  8
0
  6
Continuous
 62
               7
100
AcDbLine
 10
737.57542509108737
 20
441.1205991706878
 30
0.0
 11
652.38482582467361
 21
441.12059935699313
 31
0.0
  0
LINE
  5
2E2
100
AcDbEntity
  8
0
  6
Continuous
 62
               6
100
AcDbLine
 10
824.88482584312999
 20
472.12059903442173
 30
0.0
 11
818.88482584313022
 21
472.12059903442173
 31
0.0
  0
LINE
  5
2E3
100
AcDbEntity
  8
0
  6
Continuous
 62
               6
100
AcDbLine
 10
774.88482584312999
 20
472.12059903442173
 30
0.0
 11
774.88482584312999
 21
453.12059903442173
 31
0.0
  0
LINE
  5
2E4
100
AcDbEntity
  8
0
  6
Continuous
 62
               6
100
AcDbLine
 10
774.88482584312999
 20
453.12059903442173
 30
0.0
 11
824.88482584312999
 21
453.12059903442173
 31
0.0
  0
LINE
  5
2E5
100
AcDbEntity
  8
0
  6
Continuous
 62
               6
100
AcDbLine
 10
824.88482584312999
 20
453.12059903442173
 30
0.0
 11
824.88482584312999
 21
472.12059945330543
 31
0.0
  0
LINE
  5
2E6
100
AcDbEntity
  8
0
  6
Continuous
 62
               6
100
AcDbLine
 10
823.68482584313017
 20
470.9205990344218
 30
0.0
 11
820.08482584313026
 21
470.9205990344218
 31
0.0
  0
LINE
  5
2E7
100
AcDbEntity
  8
0
  6
Continuous
 62
               6
100
AcDbLine
 10
776.08482584313026
 20
470.9205990344218
 30
0.0
 11
776.08482584313026
 21
454.32059903442178
 31
0.0
  0
LINE
  5
2E8
100
AcDbEntity
  8
0
  6
Continuous
 62
               6
100
AcDbLine
 10
776.08482584313026
 20
454.32059903442178
 30
0.0
 11
823.68482584313017
 21
454.32059903442178
 31
0.0
  0
LINE
  5
2E9
100
AcDbEntity
  8
0
  6
Continuous
 62
               6
100
AcDbLine
 10
823.68482584313017
 20
454.32059903442178
 30
0.0
 11
823.68482584313017
 21
470.9205990344218
 31
0.0
  0
LINE
  5
2EA
100
AcDbEntity
  8
0
  6
Continuous
 62
               6
100
AcDbLine
 10
818.88482584313022
 20
468.12059903442173
 30
0.0
 11
818.88482584313022
 21
472.12059903442173
 31
0.0
  0
LINE
  5
2EB
100
AcDbEntity
  8
0
  6
Continuous
 62
               6
100
AcDbLine
 10
780.88482584313022
 20
472.12059903442173
 30
0.0
 11
780.88482584313022
 21
468.12059903442173
 31
0.0
  0
LINE
  5
2EC
100
AcDbEntity
  8
0
  6
Continuous
 62
               6
100
AcDbLine
 10
820.08482584313026
 20
468.12059903442173
 30
0.0
 11
820.08482584313026
 21
470.9205990344218
 31
0.0
  0
LINE
  5
2ED
100
AcDbEntity
  8
0
  6
Continuous
 62
               6
100
AcDbLine
 10
779.68482584313017
 20
470.9205990344218
 30
0.0
 11
779.68482584313017
 21
468.12059903442173
 31
0.0
  0
LINE
  5
2EE
100
AcDbEntity
  8
0
  6
Continuous
 62
               6
100
AcDbLine
 10
780.88482584313022
 20
472.12059903442173
 30
0.0
 11
774.88482584312999
 21
472.12059903442173
 31
0.0
  0
LINE
  5
2EF
100
AcDbEntity
  8
0
  6
Continuous
 62
               6
100
AcDbLine
 10
779.68482584313017
 20
470.9205990344218
 30
0.0
 11
776.08482584313026
 21
470.9205990344218
 31
0.0
  0
LINE
  5
2F0
100
AcDbEntity
  8
0
  6
Continuous
 62
               6
100
AcDbLine
 10
780.88482584313022
 20
468.12059903442173
 30
0.0
 11
779.68482584313017
 21
468.12059903442173
 31
0.0
  0
LINE
  5
2F1
100
AcDbEntity
  8
0
  6
Continuous
 62
               4
100
AcDbLine
 10
822.68482584313017
 20
511.12059903442173
 30
0.0
 11
777.08482584313026
 21
511.12059903442173
 31
0.0
  0
LINE
  5
2F2
100
AcDbEntity
  8
0
  6
Continuous
 62
               4
100
AcDbLine
 10
781.38482584313022
 20
473.12059903442173
 30
0.0
 11
777.08482584313026
 21
473.12059903442173
 31
0.0
  0
LINE
  5
2F3
100
AcDbEntity
  8
0
  6
Continuous
 62
               4
100
AcDbLine
 10
822.68482584313017
 20
465.12059903442173
 30
0.0
 11
777.08482584313026
 21
465.12059903442173
 31
0.0
  0
LINE
  5
2F4
100
AcDbEntity
  8
0
  6
Continuous
 62
               4
100
AcDbLine
 10
822.68482584313017
 20
465.12059903442173
 30
0.0
 11
822.68482584313017
 21
469.9205990344218
 31
0.0
  0
LINE
  5
2F5
100
AcDbEntity
  8
0
  6
Continuous
 62
               4
100
AcDbLine
 10
777.08482584313026
 20
469.9205990344218
 30
0.0
 11
777.08482584313026
 21
465.12059903442173
 31
0.0
  0
LINE
  5
2F6
100
AcDbEntity
  8
0
  6
Continuous
 62
               4
100
AcDbLine
 10
781.38482584313022
 20
473.12059903442173
 30
0.0
 11
781.38482584313022
 21
468.12059903442173
 31
0.0
  0
LINE
  5
2F7
100
AcDbEntity
  8
0
  6
Continuous
 62
               4
100
AcDbLine
 10
818.38482584313022
 20
468.12059903442173
 30
0.0
 11
818.38482584313022
 21
473.12059903442173
 31
0.0
  0
LINE
  5
2F8
100
AcDbEntity
  8
0
  6
Continuous
 62
               4
100
AcDbLine
 10
818.38482584313022
 20
473.12059903442173
 30
0.0
 11
822.68482584313017
 21
473.12059903442173
 31
0.0
  0
LINE
  5
2F9
100
AcDbEntity
  8
0
  6
Continuous
 62
               4
100
AcDbLine
 10
822.68482584313017
 20
469.9205990344218
 30
0.0
 11
820.08482584313026
 21
469.9205990344218
 31
0.0
  0
LINE
  5
2FA
100
AcDbEntity
  8
0
  6
Continuous
 62
               4
100
AcDbLine
 10
820.08482584313026
 20
469.9205990344218
 30
0.0
 11
820.08482584313026
 21
468.12059903442173
 31
0.0
  0
LINE
  5
2FB
100
AcDbEntity
  8
0
  6
Continuous
 62
               4
100
AcDbLine
 10
820.08482584313026
 20
468.12059903442173
 30
0.0
 11
818.38482584313022
 21
468.12059903442173
 31
0.0
  0
LINE
  5
2FC
100
AcDbEntity
  8
0
  6
Continuous
 62
               4
100
AcDbLine
 10
781.38482584313022
 20
468.12059903442173
 30
0.0
 11
779.68482584313017
 21
468.12059903442173
 31
0.0
  0
LINE
  5
2FD
100
AcDbEntity
  8
0
  6
Continuous
 62
               4
100
AcDbLine
 10
779.68482584313017
 20
468.12059903442173
 30
0.0
 11
779.68482584313017
 21
469.9205990344218
 31
0.0
  0
LINE
  5
2FE
100
AcDbEntity
  8
0
  6
Continuous
 62
               4
100
AcDbLine
 10
779.68482584313017
 20
469.9205990344218
 30
0.0
 11
777.08482584313026
 21
469.9205990344218
 31
0.0
  0
LINE
  5
2FF
100
AcDbEntity
  8
0
  6
Continuous
 62
               4
100
AcDbLine
 10
777.08482584313026
 20
473.12059903442173
 30
0.0
 11
777.08482584313026
 21
511.12059903442173
 31
0.0
  0
LINE
  5
300
100
AcDbEntity
  8
0
  6
Continuous
 62
               4
100
AcDbLine
 10
822.68482584313017
 20
473.12059903442173
 30
0.0
 11
822.68482584313017
 21
511.12059903442173
 31
0.0
  0
LINE
  5
301
100
AcDbEntity
  8
0
  6
Continuous
 62
               6
100
AcDbLine
 10
824.88482584312999
 20
472.12059903442173
 30
0.0
 11
818.38482584313022
 21
472.12059903442173
 31
0.0
  0
LINE
  5
302
100
AcDbEntity
  8
0
  6
DOT
 62
               6
100
AcDbLine
 10
822.68482584313017
 20
510.12059903442173
 30
0.0
 11
777.08482584313026
 21
510.12059903442173
 31
0.0
  0
LINE
  5
303
100
AcDbEntity
  8
0
  6
DOT
 62
               6
100
AcDbLine
 10
818.38482584313022
 20
472.12059903442173
 30
0.0
 11
781.38482584313022
 21
472.12059903442173
 31
0.0
  0
LINE
  5
304
100
AcDbEntity
  8
0
  6
Continuous
 62
               6
100
AcDbLine
 10
777.08482584313026
 20
472.12059945330543
 30
0.0
 11
695.38482585091663
 21
472.12059945330543
 31
0.0
  0
LINE
  5
305
100
AcDbEntity
  8
0
  6
DASHED
 62
               6
100
AcDbLine
 10
777.08482584313026
 20
508.72059945330557
 30
0.0
 11
695.38482585091663
 21
508.72059945330557
 31
0.0
  0
LINE
  5
306
100
AcDbEntity
  8
0
  6
DASHED
 62
               6
100
AcDbLine
 10
777.08482584313026
 20
473.52059682879371
 30
0.0
 11
695.38482585091663
 21
473.52059945330541
 31
0.0
  0
LINE
  5
307
100
AcDbEntity
  8
0
  6
Continuous
 62
               6
100
AcDbLine
 10
777.08482584313026
 20
510.12059945330543
 30
0.0
 11
695.38482585091663
 21
510.12059945330543
 31
0.0
  0
LINE
  5
308
100
AcDbEntity
  8
0
  6
Continuous
 62
               4
100
AcDbLine
 10
660.13482585037002
 20
434.12059931817521
 30
0.0
 11
664.37746653748934
 21
429.87795863105612
 31
0.0
  0
LINE
  5
309
100
AcDbEntity
  8
0
  6
Continuous
 62
               4
100
AcDbLine
 10
660.13482585037002
 20
434.12059931817521
 30
0.0
 11
661.68774012098504
 21
428.32504436044087
 31
0.0
  0
LINE
  5
30A
100
AcDbEntity
  8
0
  6
Continuous
 62
               7
100
AcDbLine
 10
632.88482585091663
 20
466.62059935699313
 30
0.0
 11
632.88482585091663
 21
452.12059935699313
 31
0.0
  0
LINE
  5
30B
100
AcDbEntity
  8
0
  6
Continuous
 62
               7
100
AcDbLine
 10
630.38482585091663
 20
452.12059935699313
 30
0.0
 11
630.38482585091663
 21
451.12059935699313
 31
0.0
  0
LINE
  5
30C
100
AcDbEntity
  8
0
  6
Continuous
 62
               7
100
AcDbLine
 10
637.88482585091663
 20
466.62059935699313
 30
0.0
 11
637.88482585091663
 21
452.12059935699313
 31
0.0
  0
LINE
  5
30D
100
AcDbEntity
  8
0
  6
Continuous
 62
               7
100
AcDbLine
 10
640.38482585091663
 20
452.12059935699313
 30
0.0
 11
640.38482585091663
 21
451.12059935699313
 31
0.0
  0
LINE
  5
30E
100
AcDbEntity
  8
0
  6
Continuous
 62
               7
100
AcDbLine
 10
630.38482585091663
 20
452.12059935699313
 30
0.0
 11
640.38482585091663
 21
452.12059935699313
 31
0.0
  0
LINE
  5
30F
100
AcDbEntity
  8
0
  6
Continuous
 62
               7
100
AcDbLine
 10
632.88482585091663
 20
466.62059935699313
 30
0.0
 11
635.38482585091663
 21
468.12059935699313
 31
0.0
  0
LINE
  5
310
100
AcDbEntity
  8
0
  6
Continuous
 62
               7
100
AcDbLine
 10
637.88482585091663
 20
466.62059935699313
 30
0.0
 11
635.38482585091663
 21
468.12059935699313
 31
0.0
  0
LINE
  5
311
100
AcDbEntity
  8
0
  6
Continuous
 62
               7
100
AcDbLine
 10
632.88482585091663
 20
455.12059935699313
 30
0.0
 11
637.88482585091663
 21
457.12059935699313
 31
0.0
  0
LINE
  5
312
100
AcDbEntity
  8
0
  6
Continuous
 62
               7
100
AcDbLine
 10
632.88482585091663
 20
457.12059935699313
 30
0.0
 11
637.88482585091663
 21
459.12059935699313
 31
0.0
  0
LINE
  5
313
100
AcDbEntity
  8
0
  6
Continuous
 62
               7
100
AcDbLine
 10
632.88482585091663
 20
459.12059935699313
 30
0.0
 11
637.88482585091663
 21
461.12059935699313
 31
0.0
  0
LINE
  5
314
100
AcDbEntity
  8
0
  6
Continuous
 62
               7
100
AcDbLine
 10
637.88482585091663
 20
463.12059935699313
 30
0.0
 11
632.88482585091663
 21
461.12059935699313
 31
0.0
  0
LINE
  5
315
100
AcDbEntity
  8
0
  6
Continuous
 62
               7
100
AcDbLine
 10
637.88482585091663
 20
465.12059935699313
 30
0.0
 11
634.88482585091663
 21
463.92059935699331
 31
0.0
  0
LINE
  5
316
100
AcDbEntity
  8
0
  6
Continuous
 62
               7
100
AcDbLine
 10
633.38482585091663
 20
466.12059935699313
 30
0.0
 11
633.38482585091663
 21
463.32059935699317
 31
0.0
  0
LINE
  5
317
100
AcDbEntity
  8
0
  6
Continuous
 62
               7
100
AcDbLine
 10
634.88482585091663
 20
466.82059935699317
 30
0.0
 11
634.88482585091663
 21
463.92059935699331
 31
0.0
  0
LINE
  5
318
100
AcDbEntity
  8
0
  6
Continuous
 62
               7
100
AcDbLine
 10
632.88482585091663
 20
466.62059935699313
 30
0.0
 11
633.38482585091663
 21
466.12059935699313
 31
0.0
  0
LINE
  5
319
100
AcDbEntity
  8
0
  6
Continuous
 62
               7
100
AcDbLine
 10
634.88482585091663
 20
463.92059935699331
 30
0.0
 11
633.83482585091667
 21
462.87059935699313
 31
0.0
  0
LINE
  5
31A
100
AcDbEntity
  8
0
  6
Continuous
 62
               7
100
AcDbLine
 10
633.38482585091663
 20
463.32059935699317
 30
0.0
 11
633.83482585091667
 21
462.87059935699313
 31
0.0
  0
LINE
  5
31B
100
AcDbEntity
  8
0
  6
Continuous
 62
               7
100
AcDbLine
 10
633.38482585091663
 20
463.32059935699317
 30
0.0
 11
632.88482585091663
 21
463.12059935699313
 31
0.0
  0
LINE
  5
31C
100
AcDbEntity
  8
0
  6
DOT
 62
               7
100
AcDbLine
 10
633.88482585091663
 20
449.27746887743774
 30
0.0
 11
635.38482585091663
 21
452.12059935699313
 31
0.0
  0
LINE
  5
31D
100
AcDbEntity
  8
0
  6
DOT
 62
               7
100
AcDbLine
 10
635.38482585091663
 20
452.12059935699313
 30
0.0
 11
636.88482585091663
 21
449.27746887743774
 31
0.0
  0
LINE
  5
31E
100
AcDbEntity
  8
0
  6
DASHDOT
 62
               4
100
AcDbLine
 10
959.88482583108555
 20
469.62059870528958
 30
0.0
 11
959.88482583108555
 21
446.62059870528958
 31
0.0
  0
LINE
  5
31F
100
AcDbEntity
  8
0
  6
Continuous
 62
               7
100
AcDbLine
 10
957.38482583108555
 20
466.12059870528958
 30
0.0
 11
957.38482583108555
 21
451.62059870528958
 31
0.0
  0
LINE
  5
320
100
AcDbEntity
  8
0
  6
Continuous
 62
               7
100
AcDbLine
 10
954.88482583108555
 20
451.62059870528958
 30
0.0
 11
954.88482583108555
 21
450.62059870528958
 31
0.0
  0
LINE
  5
321
100
AcDbEntity
  8
0
  6
Continuous
 62
               7
100
AcDbLine
 10
962.38482583108555
 20
466.12059870528958
 30
0.0
 11
962.38482583108555
 21
451.62059870528958
 31
0.0
  0
LINE
  5
322
100
AcDbEntity
  8
0
  6
Continuous
 62
               7
100
AcDbLine
 10
964.88482583108555
 20
451.62059870528958
 30
0.0
 11
964.88482583108555
 21
450.62059870528958
 31
0.0
  0
LINE
  5
323
100
AcDbEntity
  8
0
  6
Continuous
 62
               7
100
AcDbLine
 10
954.88482583108555
 20
451.62059870528958
 30
0.0
 11
964.88482583108555
 21
451.62059870528958
 31
0.0
  0
LINE
  5
324
100
AcDbEntity
  8
0
  6
Continuous
 62
               7
100
AcDbLine
 10
957.38482583108555
 20
466.12059870528958
 30
0.0
 11
959.88482583108555
 21
467.62059870528958
 31
0.0
  0
LINE
  5
325
100
AcDbEntity
  8
0
  6
Continuous
 62
               7
100
AcDbLine
 10
962.38482583108555
 20
466.12059870528958
 30
0.0
 11
959.88482583108555
 21
467.62059870528958
 31
0.0
  0
LINE
  5
326
100
AcDbEntity
  8
0
  6
Continuous
 62
               7
100
AcDbLine
 10
957.38482583108555
 20
454.62059870528958
 30
0.0
 11
962.38482583108555
 21
456.62059870528958
 31
0.0
  0
LINE
  5
327
100
AcDbEntity
  8
0
  6
Continuous
 62
               7
100
AcDbLine
 10
957.38482583108555
 20
456.62059870528958
 30
0.0
 11
962.38482583108555
 21
458.62059870528958
 31
0.0
  0
LINE
  5
328
100
AcDbEntity
  8
0
  6
Continuous
 62
               7
100
AcDbLine
 10
957.38482583108555
 20
458.62059870528958
 30
0.0
 11
962.38482583108555
 21
460.62059870528958
 31
0.0
  0
LINE
  5
329
100
AcDbEntity
  8
0
  6
Continuous
 62
               7
100
AcDbLine
 10
962.38482583108555
 20
462.62059870528958
 30
0.0
 11
957.38482583108555
 21
460.62059870528958
 31
0.0
  0
LINE
  5
32A
100
AcDbEntity
  8
0
  6
Continuous
 62
               7
100
AcDbLine
 10
962.38482583108555
 20
464.62059870528958
 30
0.0
 11
959.38482583108555
 21
463.42059870528965
 31
0.0
  0
LINE
  5
32B
100
AcDbEntity
  8
0
  6
Continuous
 62
               7
100
AcDbLine
 10
957.88482583108555
 20
465.62059870528958
 30
0.0
 11
957.88482583108555
 21
462.82059870528951
 31
0.0
  0
LINE
  5
32C
100
AcDbEntity
  8
0
  6
Continuous
 62
               7
100
AcDbLine
 10
959.38482583108555
 20
466.32059870528974
 30
0.0
 11
959.38482583108555
 21
463.42059870528965
 31
0.0
  0
LINE
  5
32D
100
AcDbEntity
  8
0
  6
Continuous
 62
               7
100
AcDbLine
 10
957.38482583108555
 20
466.12059870528958
 30
0.0
 11
957.88482583108555
 21
465.62059870528958
 31
0.0
  0
LINE
  5
32E
100
AcDbEntity
  8
0
  6
Continuous
 62
               7
100
AcDbLine
 10
959.38482583108555
 20
463.42059870528965
 30
0.0
 11
958.33482583108537
 21
462.37059870528958
 31
0.0
  0
LINE
  5
32F
100
AcDbEntity
  8
0
  6
Continuous
 62
               7
100
AcDbLine
 10
957.88482583108555
 20
462.82059870528951
 30
0.0
 11
958.33482583108537
 21
462.37059870528958
 31
0.0
  0
LINE
  5
330
100
AcDbEntity
  8
0
  6
Continuous
 62
               7
100
AcDbLine
 10
957.88482583108555
 20
462.82059870528951
 30
0.0
 11
957.38482583108555
 21
462.62059870528958
 31
0.0
  0
LINE
  5
331
100
AcDbEntity
  8
0
  6
DOT
 62
               7
100
AcDbLine
 10
958.38482583108555
 20
448.77746822573397
 30
0.0
 11
959.88482583108555
 21
451.62059870528958
 31
0.0
  0
LINE
  5
332
100
AcDbEntity
  8
0
  6
DOT
 62
               7
100
AcDbLine
 10
959.88482583108555
 20
451.62059870528958
 30
0.0
 11
961.38482583108555
 21
448.77746822573397
 31
0.0
  0
LINE
  5
333
100
AcDbEntity
  8
0
  6
DASHDOT
 62
               4
100
AcDbLine
 10
798.88482579570211
 20
468.12059903881004
 30
0.0
 11
798.88482579570211
 21
431.12059903881027
 31
0.0
  0
LINE
  5
334
100
AcDbEntity
  8
0
  6
Continuous
 62
               7
100
AcDbLine
 10
796.38482579570211
 20
464.62059903881027
 30
0.0
 11
796.38482579570211
 21
436.12059903881027
 31
0.0
  0
LINE
  5
335
100
AcDbEntity
  8
0
  6
Continuous
 62
               7
100
AcDbLine
 10
793.88482579570211
 20
436.12059903881027
 30
0.0
 11
793.88482579570211
 21
435.12059903881027
 31
0.0
  0
LINE
  5
336
100
AcDbEntity
  8
0
  6
Continuous
 62
               7
100
AcDbLine
 10
801.38482579570211
 20
464.62059903881027
 30
0.0
 11
801.38482579570211
 21
436.12059903881027
 31
0.0
  0
LINE
  5
337
100
AcDbEntity
  8
0
  6
Continuous
 62
               7
100
AcDbLine
 10
803.88482579570211
 20
436.12059903881027
 30
0.0
 11
803.88482579570211
 21
435.12059903881027
 31
0.0
  0
LINE
  5
338
100
AcDbEntity
  8
0
  6
Continuous
 62
               7
100
AcDbLine
 10
793.88482579570211
 20
436.12059903881027
 30
0.0
 11
803.88482579570211
 21
436.12059903881027
 31
0.0
  0
LINE
  5
339
100
AcDbEntity
  8
0
  6
Continuous
 62
               7
100
AcDbLine
 10
796.38482579570211
 20
464.62059903881027
 30
0.0
 11
798.88482579570211
 21
466.12059903881027
 31
0.0
  0
LINE
  5
33A
100
AcDbEntity
  8
0
  6
Continuous
 62
               7
100
AcDbLine
 10
801.38482579570211
 20
464.62059903881027
 30
0.0
 11
798.88482579570211
 21
466.12059903881027
 31
0.0
  0
LINE
  5
33B
100
AcDbEntity
  8
0
  6
Continuous
 62
               7
100
AcDbLine
 10
796.38482579570211
 20
453.12059903881027
 30
0.0
 11
801.38482579570211
 21
455.12059903881027
 31
0.0
  0
LINE
  5
33C
100
AcDbEntity
  8
0
  6
Continuous
 62
               7
100
AcDbLine
 10
796.38482579570211
 20
455.12059903881027
 30
0.0
 11
801.38482579570211
 21
457.12059903881027
 31
0.0
  0
LINE
  5
33D
100
AcDbEntity
  8
0
  6
Continuous
 62
               7
100
AcDbLine
 10
796.38482579570211
 20
457.12059903881027
 30
0.0
 11
801.38482579570211
 21
459.12059903881027
 31
0.0
  0
LINE
  5
33E
100
AcDbEntity
  8
0
  6
Continuous
 62
               7
100
AcDbLine
 10
801.38482579570211
 20
461.12059903881027
 30
0.0
 11
796.38482579570211
 21
459.12059903881027
 31
0.0
  0
LINE
  5
33F
100
AcDbEntity
  8
0
  6
Continuous
 62
               7
100
AcDbLine
 10
801.38482579570211
 20
463.12059903881027
 30
0.0
 11
798.38482579570211
 21
461.92059903881022
 31
0.0
  0
LINE
  5
340
100
AcDbEntity
  8
0
  6
Continuous
 62
               7
100
AcDbLine
 10
796.88482579570211
 20
464.12059903881027
 30
0.0
 11
796.88482579570211
 21
461.3205990388102
 31
0.0
  0
LINE
  5
341
100
AcDbEntity
  8
0
  6
Continuous
 62
               7
100
AcDbLine
 10
798.38482579570211
 20
464.8205990388102
 30
0.0
 11
798.38482579570211
 21
461.92059903881022
 31
0.0
  0
LINE
  5
342
100
AcDbEntity
  8
0
  6
Continuous
 62
               7
100
AcDbLine
 10
796.38482579570211
 20
464.62059903881027
 30
0.0
 11
796.88482579570211
 21
464.12059903881027
 31
0.0
  0
LINE
  5
343
100
AcDbEntity
  8
0
  6
Continuous
 62
               7
100
AcDbLine
 10
798.38482579570211
 20
461.92059903881022
 30
0.0
 11
797.33482579570193
 21
460.87059903881027
 31
0.0
  0
LINE
  5
344
100
AcDbEntity
  8
0
  6
Continuous
 62
               7
100
AcDbLine
 10
796.88482579570211
 20
461.3205990388102
 30
0.0
 11
797.33482579570193
 21
460.87059903881027
 31
0.0
  0
LINE
  5
345
100
AcDbEntity
  8
0
  6
Continuous
 62
               7
100
AcDbLine
 10
796.88482579570211
 20
461.3205990388102
 30
0.0
 11
796.38482579570211
 21
461.12059903881027
 31
0.0
  0
LINE
  5
346
100
AcDbEntity
  8
0
  6
DOT
 62
               7
100
AcDbLine
 10
797.38482579570211
 20
433.27746855925466
 30
0.0
 11
798.88482579570211
 21
436.12059903881027
 31
0.0
  0
LINE
  5
347
100
AcDbEntity
  8
0
  6
DOT
 62
               7
100
AcDbLine
 10
798.88482579570211
 20
436.12059903881027
 30
0.0
 11
800.38482579570211
 21
433.27746855925466
 31
0.0
  0
LINE
  5
348
100
AcDbEntity
  8
0
  6
Continuous
 62
               7
100
AcDbLine
 10
796.38482579570211
 20
449.12059903881027
 30
0.0
 11
801.38482579570211
 21
451.12059903881027
 31
0.0
  0
LINE
  5
349
100
AcDbEntity
  8
0
  6
Continuous
 62
               7
100
AcDbLine
 10
796.38482579570211
 20
451.12059903881027
 30
0.0
 11
801.38482579570211
 21
453.12059903881027
 31
0.0
  0
LINE
  5
34A
100
AcDbEntity
  8
0
  6
Continuous
 62
               7
100
AcDbLine
 10
796.38482579570211
 20
445.12059903881027
 30
0.0
 11
801.38482579570211
 21
447.12059903881027
 31
0.0
  0
LINE
  5
34B
100
AcDbEntity
  8
0
  6
Continuous
 62
               7
100
AcDbLine
 10
796.38482579570211
 20
447.12059903881027
 30
0.0
 11
801.38482579570211
 21
449.12059903881027
 31
0.0
  0
LINE
  5
34C
100
AcDbEntity
  8
0
  6
Continuous
 62
               7
100
AcDbLine
 10
796.38482579570211
 20
441.12059903881027
 30
0.0
 11
801.38482579570211
 21
443.12059903881027
 31
0.0
  0
LINE
  5
34D
100
AcDbEntity
  8
0
  6
Continuous
 62
               7
100
AcDbLine
 10
796.38482579570211
 20
443.12059903881027
 30
0.0
 11
801.38482579570211
 21
445.12059903881027
 31
0.0
  0
LINE
  5
34E
100
AcDbEntity
  8
0
  6
Continuous
 62
               4
100
AcDbLine
 10
972.38482569463497
 20
434.92059841481341
 30
0.0
 11
1008.6424228363427
 21
372.12059832205841
 31
0.0
  0
LINE
  5
34F
100
AcDbEntity
  8
0
  6
Continuous
 62
               4
100
AcDbLine
 10
1008.6424228363427
 20
372.12059832205841
 30
0.0
 11
1074.6038895962806
 21
372.12059832205841
 31
0.0
  0
LINE
  5
350
100
AcDbEntity
  8
0
  6
Continuous
 62
               4
100
AcDbLine
 10
972.38482569463497
 20
434.92059841481341
 30
0.0
 11
976.62746639102863
 21
430.67795773696878
 31
0.0
  0
LINE
  5
351
100
AcDbEntity
  8
0
  6
Continuous
 62
               4
100
AcDbLine
 10
972.38482569463497
 20
434.92059841481341
 30
0.0
 11
973.93773997791902
 21
429.12504346047376
 31
0.0
  0
LINE
  5
352
100
AcDbEntity
  8
0
  6
DASHED
 62
               6
100
AcDbLine
 10
973.38482641847634
 20
453.12059870091582
 30
0.0
 11
973.38482497343387
 21
416.72059860554828
 31
0.0
  0
LINE
  5
353
100
AcDbEntity
  8
0
  6
DASHED
 62
               6
100
AcDbLine
 10
973.38482641847634
 20
453.12059870091582
 30
0.0
 11
972.38482585091685
 21
458.12059870091582
 31
0.0
  0
CIRCLE
  5
354
100
AcDbEntity
  8
0
  6
Continuous
 62
               4
100
AcDbCircle
 10
445.38482585091663
 20
1031.1205983220589
 30
0.0
 40
1.0
  0
CIRCLE
  5
355
100
AcDbEntity
  8
0
  6
Continuous
 62
               4
100
AcDbCircle
 10
845.38482585091663
 20
1031.1205983220589
 30
0.0
 40
1.0
  0
CIRCLE
  5
356
100
AcDbEntity
  8
0
  6
Continuous
 62
               4
100
AcDbCircle
 10
845.38482585091663
 20
1031.1205983220589
 30
0.0
 40
1.0
  0
CIRCLE
  5
357
100
AcDbEntity
  8
0
  6
Continuous
 62
               4
100
AcDbCircle
 10
945.38482585091663
 20
1031.1205983220589
 30
0.0
 40
1.0
  0
CIRCLE
  5
358
100
AcDbEntity
  8
0
  6
Continuous
 62
               4
100
AcDbCircle
 10
945.38482585091663
 20
1031.1205983220589
 30
0.0
 40
1.0
  0
CIRCLE
  5
359
100
AcDbEntity
  8
0
  6
Continuous
 62
               4
100
AcDbCircle
 10
971.38482585091663
 20
1031.1205983220589
 30
0.0
 40
1.0
  0
CIRCLE
  5
35A
100
AcDbEntity
  8
0
  6
Continuous
 62
               4
100
AcDbCircle
 10
971.38482585091663
 20
1017.1205983220589
 30
0.0
 40
1.0
  0
CIRCLE
  5
35B
100
AcDbEntity
  8
0
  6
Continuous
 62
               4
100
AcDbCircle
 10
965.38482585091663
 20
1017.1205983220589
 30
0.0
 40
1.0
  0
CIRCLE
  5
35C
100
AcDbEntity
  8
0
  6
Continuous
 62
               4
100
AcDbCircle
 10
965.38482585091663
 20
1017.1205983220589
 30
0.0
 40
1.0
  0
CIRCLE
  5
35D
100
AcDbEntity
  8
0
  6
Continuous
 62
               4
100
AcDbCircle
 10
945.38482585091663
 20
1017.1205983220589
 30
0.0
 40
1.0
  0
CIRCLE
  5
35E
100
AcDbEntity
  8
0
  6
Continuous
 62
               4
100
AcDbCircle
 10
945.38482585091663
 20
1017.1205983220589
 30
0.0
 40
1.0
  0
CIRCLE
  5
35F
100
AcDbEntity
  8
0
  6
Continuous
 62
               4
100
AcDbCircle
 10
895.38482585091663
 20
1017.1205983220589
 30
0.0
 40
1.0
  0
CIRCLE
  5
360
100
AcDbEntity
  8
0
  6
Continuous
 62
               4
100
AcDbCircle
 10
895.38482585091663
 20
1017.1205983220589
 30
0.0
 40
1.0
  0
CIRCLE
  5
361
100
AcDbEntity
  8
0
  6
Continuous
 62
               4
100
AcDbCircle
 10
845.38482585091663
 20
1017.1205983220589
 30
0.0
 40
1.0
  0
CIRCLE
  5
362
100
AcDbEntity
  8
0
  6
Continuous
 62
               4
100
AcDbCircle
 10
845.38482585091663
 20
1017.1205983220589
 30
0.0
 40
1.0
  0
CIRCLE
  5
363
100
AcDbEntity
  8
0
  6
Continuous
 62
               4
100
AcDbCircle
 10
820.38482585091663
 20
1017.1205983220589
 30
0.0
 40
1.0
  0
CIRCLE
  5
364
100
AcDbEntity
  8
0
  6
Continuous
 62
               4
100
AcDbCircle
 10
489.38482585091663
 20
891.12059832205864
 30
0.0
 40
1.0
  0
CIRCLE
  5
365
100
AcDbEntity
  8
0
  6
Continuous
 62
               4
100
AcDbCircle
 10
489.38482585091663
 20
791.12059832205887
 30
0.0
 40
1.0
  0
CIRCLE
  5
366
100
AcDbEntity
  8
0
  6
Continuous
 62
               4
100
AcDbCircle
 10
445.38482585091663
 20
288.12059832205864
 30
0.0
 40
1.0
  0
CIRCLE
  5
367
100
AcDbEntity
  8
0
  6
Continuous
 62
               4
100
AcDbCircle
 10
895.38482585091663
 20
288.12059832205864
 30
0.0
 40
1.0
  0
CIRCLE
  5
368
100
AcDbEntity
  8
0
  6
Continuous
 62
               4
100
AcDbCircle
 10
445.38482585091663
 20
1066.120598322058
 30
0.0
 40
14.0
  0
CIRCLE
  5
369
100
AcDbEntity
  8
0
  6
Continuous
 62
               4
100
AcDbCircle
 10
1111.3848258509156
 20
891.12059832205864
 30
0.0
 40
1.0
  0
CIRCLE
  5
36A
100
AcDbEntity
  8
0
  6
Continuous
 62
               4
100
AcDbCircle
 10
1111.3848258509156
 20
591.12059832205887
 30
0.0
 40
1.0
  0
CIRCLE
  5
36B
100
AcDbEntity
  8
0
  6
Continuous
 62
               4
100
AcDbCircle
 10
1111.3848258509156
 20
591.12059832205887
 30
0.0
 40
1.0
  0
CIRCLE
  5
36C
100
AcDbEntity
  8
0
  6
Continuous
 62
               4
100
AcDbCircle
 10
1111.3848258509156
 20
436.12059832205887
 30
0.0
 40
1.0
  0
CIRCLE
  5
36D
100
AcDbEntity
  8
0
  6
Continuous
 62
               4
100
AcDbCircle
 10
955.38482585091663
 20
1071.1205983220591
 30
0.0
 40
1.0
  0
CIRCLE
  5
36E
100
AcDbEntity
  8
0
  6
Continuous
 62
               4
100
AcDbCircle
 10
968.38482585091663
 20
1071.1205983220591
 30
0.0
 40
1.0
  0
CIRCLE
  5
36F
100
AcDbEntity
  8
0
  6
Continuous
 62
               4
100
AcDbCircle
 10
972.38482585091685
 20
1071.1205983220591
 30
0.0
 40
1.0
  0
CIRCLE
  5
370
100
AcDbEntity
  8
0
  6
Continuous
 62
               4
100
AcDbCircle
 10
974.38482585091663
 20
1071.1205983220591
 30
0.0
 40
1.0
  0
CIRCLE
  5
371
100
AcDbEntity
  8
0
  6
Continuous
 62
               4
100
AcDbCircle
 10
974.38482585091663
 20
1031.1205983220589
 30
0.0
 40
1.0
  0
CIRCLE
  5
372
100
AcDbEntity
  8
0
  6
Continuous
 62
               4
100
AcDbCircle
 10
994.38482585091663
 20
1031.1205983220589
 30
0.0
 40
1.0
  0
CIRCLE
  5
373
100
AcDbEntity
  8
0
  6
Continuous
 62
               4
100
AcDbCircle
 10
1125.3848258509156
 20
436.12059937230174
 30
0.0
 40
1.0
  0
CIRCLE
  5
374
100
AcDbEntity
  8
0
  6
Continuous
 62
               4
100
AcDbCircle
 10
1125.3848258509156
 20
416.12059832205887
 30
0.0
 40
1.0
  0
CIRCLE
  5
375
100
AcDbEntity
  8
0
  6
Continuous
 62
               4
100
AcDbCircle
 10
625.38482585091663
 20
330.12059832205864
 30
0.0
 40
1.0
  0
CIRCLE
  5
376
100
AcDbEntity
  8
0
  6
Continuous
 62
               4
100
AcDbCircle
 10
595.38482585091663
 20
330.12059832205864
 30
0.0
 40
1.0
  0
CIRCLE
  5
377
100
AcDbEntity
  8
0
  6
Continuous
 62
               4
100
AcDbCircle
 10
595.38482585091663
 20
330.12059832205864
 30
0.0
 40
1.0
  0
CIRCLE
  5
378
100
AcDbEntity
  8
0
  6
Continuous
 62
               4
100
AcDbCircle
 10
565.38482585091685
 20
330.12059832205864
 30
0.0
 40
1.0
  0
CIRCLE
  5
379
100
AcDbEntity
  8
0
  6
Continuous
 62
               4
100
AcDbCircle
 10
565.38482585091685
 20
330.12059832205864
 30
0.0
 40
1.0
  0
CIRCLE
  5
37A
100
AcDbEntity
  8
0
  6
Continuous
 62
               4
100
AcDbCircle
 10
525.38482585091663
 20
330.12059832205864
 30
0.0
 40
1.0
  0
CIRCLE
  5
37B
100
AcDbEntity
  8
0
  6
Continuous
 62
               4
100
AcDbCircle
 10
525.38482585091663
 20
316.12059832205864
 30
0.0
 40
1.0
  0
CIRCLE
  5
37C
100
AcDbEntity
  8
0
  6
Continuous
 62
               4
100
AcDbCircle
 10
505.38482585091685
 20
316.12059832205864
 30
0.0
 40
1.0
  0
CIRCLE
  5
37D
100
AcDbEntity
  8
0
  6
Continuous
 62
               4
100
AcDbCircle
 10
625.38482585091663
 20
316.12059832205864
 30
0.0
 40
1.0
  0
CIRCLE
  5
37E
100
AcDbEntity
  8
0
  6
Continuous
 62
               4
100
AcDbCircle
 10
525.38482585091663
 20
316.12059832205864
 30
0.0
 40
1.0
  0
CIRCLE
  5
37F
100
AcDbEntity
  8
0
  6
Continuous
 62
               4
100
AcDbCircle
 10
505.38482585091685
 20
330.12059832205864
 30
0.0
 40
1.0
  0
CIRCLE
  5
380
100
AcDbEntity
  8
0
  6
Continuous
 62
               4
100
AcDbCircle
 10
445.38482585091663
 20
330.12059832205864
 30
0.0
 40
1.0
  0
CIRCLE
  5
381
100
AcDbEntity
  8
0
  6
Continuous
 62
               4
100
AcDbCircle
 10
445.38482585091663
 20
330.12059832205864
 30
0.0
 40
1.0
  0
CIRCLE
  5
382
100
AcDbEntity
  8
0
  6
Continuous
 62
               4
100
AcDbCircle
 10
385.38482585091663
 20
330.12059832205864
 30
0.0
 40
1.0
  0
CIRCLE
  5
383
100
AcDbEntity
  8
0
  6
Continuous
 62
               4
100
AcDbCircle
 10
385.38482585091663
 20
316.12059832205864
 30
0.0
 40
1.0
  0
CIRCLE
  5
384
100
AcDbEntity
  8
0
  6
Continuous
 62
               4
100
AcDbCircle
 10
505.38482585091663
 20
316.12059832205864
 30
0.0
 40
1.0
  0
CIRCLE
  5
385
100
AcDbEntity
  8
0
  6
Continuous
 62
               4
100
AcDbCircle
 10
319.38482585091663
 20
891.12059832205864
 30
0.0
 40
1.0
  0
CIRCLE
  5
386
100
AcDbEntity
  8
0
  6
Continuous
 62
               4
100
AcDbCircle
 10
319.38482585091663
 20
491.12059832205887
 30
0.0
 40
1.0
  0
CIRCLE
  5
387
100
AcDbEntity
  8
0
  6
Continuous
 62
               4
100
AcDbCircle
 10
319.38482585091663
 20
491.12059832205887
 30
0.0
 40
1.0
  0
CIRCLE
  5
388
100
AcDbEntity
  8
0
  6
Continuous
 62
               4
100
AcDbCircle
 10
319.38482585091663
 20
436.12059832205887
 30
0.0
 40
1.0
  0
CIRCLE
  5
389
100
AcDbEntity
  8
0
  6
Continuous
 62
               4
100
AcDbCircle
 10
1125.3848258509156
 20
891.12059832205864
 30
0.0
 40
1.0
  0
CIRCLE
  5
38A
100
AcDbEntity
  8
0
  6
Continuous
 62
               4
100
AcDbCircle
 10
1125.3848258509156
 20
436.12059937230174
 30
0.0
 40
1.0
  0
CIRCLE
  5
38B
100
AcDbEntity
  8
0
  6
Continuous
 62
               4
100
AcDbCircle
 10
820.38482585091663
 20
1017.1205983220589
 30
0.0
 40
1.0
  0
CIRCLE
  5
38C
100
AcDbEntity
  8
0
  6
Continuous
 62
               4
100
AcDbCircle
 10
445.38482585091663
 20
1017.1205983220589
 30
0.0
 40
1.0
  0
CIRCLE
  5
38D
100
AcDbEntity
  8
0
  6
Continuous
 62
               4
100
AcDbCircle
 10
491.38482585091663
 20
386.12059832205864
 30
0.0
 40
1.0
  0
CIRCLE
  5
38E
100
AcDbEntity
  8
0
  6
Continuous
 62
               4
100
AcDbCircle
 10
491.38482585091663
 20
421.12059832205864
 30
0.0
 40
1.0
  0
CIRCLE
  5
38F
100
AcDbEntity
  8
0
  6
Continuous
 62
               4
100
AcDbCircle
 10
491.38482585091663
 20
421.12059832205864
 30
0.0
 40
1.0
  0
CIRCLE
  5
390
100
AcDbEntity
  8
0
  6
Continuous
 62
               4
100
AcDbCircle
 10
491.38482585091663
 20
491.12059832205887
 30
0.0
 40
1.0
  0
CIRCLE
  5
391
100
AcDbEntity
  8
0
  6
Continuous
 62
               4
100
AcDbCircle
 10
445.38482585091663
 20
754.12059832205887
 30
0.0
 40
1.0
  0
CIRCLE
  5
392
100
AcDbEntity
  8
0
  6
Continuous
 62
               4
100
AcDbCircle
 10
695.38482585091663
 20
754.12059832205887
 30
0.0
 40
1.0
  0
CIRCLE
  5
393
100
AcDbEntity
  8
0
  6
Continuous
 62
               4
100
AcDbCircle
 10
695.38482585091663
 20
754.12059832205887
 30
0.0
 40
1.0
  0
CIRCLE
  5
394
100
AcDbEntity
  8
0
  6
Continuous
 62
               4
100
AcDbCircle
 10
895.38482585091663
 20
754.12059832205887
 30
0.0
 40
1.0
  0
CIRCLE
  5
395
100
AcDbEntity
  8
0
  6
Continuous
 62
               4
100
AcDbCircle
 10
695.38482585091663
 20
740.12059832205864
 30
0.0
 40
1.0
  0
CIRCLE
  5
396
100
AcDbEntity
  8
0
  6
Continuous
 62
               4
100
AcDbCircle
 10
820.38482585091663
 20
740.12059832205864
 30
0.0
 40
1.0
  0
CIRCLE
  5
397
100
AcDbEntity
  8
0
  6
Continuous
 62
               4
100
AcDbCircle
 10
820.38482585091663
 20
740.12059832205864
 30
0.0
 40
1.0
  0
CIRCLE
  5
398
100
AcDbEntity
  8
0
  6
Continuous
 62
               4
100
AcDbCircle
 10
845.38482585091663
 20
740.12059832205864
 30
0.0
 40
1.0
  0
CIRCLE
  5
399
100
AcDbEntity
  8
0
  6
Continuous
 62
               4
100
AcDbCircle
 10
845.38482585091663
 20
740.12059832205864
 30
0.0
 40
1.0
  0
CIRCLE
  5
39A
100
AcDbEntity
  8
0
  6
Continuous
 62
               4
100
AcDbCircle
 10
895.38482585091663
 20
740.12059832205864
 30
0.0
 40
1.0
  0
CIRCLE
  5
39B
100
AcDbEntity
  8
0
  6
Continuous
 62
               4
100
AcDbCircle
 10
625.38482585091663
 20
386.12059832205864
 30
0.0
 40
1.0
  0
CIRCLE
  5
39C
100
AcDbEntity
  8
0
  6
Continuous
 62
               4
100
AcDbCircle
 10
645.38482585091663
 20
386.12059832205864
 30
0.0
 40
1.0
  0
CIRCLE
  5
39D
100
AcDbEntity
  8
0
  6
Continuous
 62
               4
100
AcDbCircle
 10
645.38482585091663
 20
400.12059832205864
 30
0.0
 40
1.0
  0
CIRCLE
  5
39E
100
AcDbEntity
  8
0
  6
Continuous
 62
               4
100
AcDbCircle
 10
675.38482585091663
 20
400.12059832205864
 30
0.0
 40
1.0
  0
CIRCLE
  5
39F
100
AcDbEntity
  8
0
  6
Continuous
 62
               4
100
AcDbCircle
 10
675.38482585091663
 20
400.12059832205864
 30
0.0
 40
1.0
  0
CIRCLE
  5
3A0
100
AcDbEntity
  8
0
  6
Continuous
 62
               4
100
AcDbCircle
 10
922.38482585060422
 20
400.12059832205864
 30
0.0
 40
1.0
  0
CIRCLE
  5
3A1
100
AcDbEntity
  8
0
  6
Continuous
 62
               4
100
AcDbCircle
 10
922.38482585060422
 20
400.12059832205864
 30
0.0
 40
1.0
  0
CIRCLE
  5
3A2
100
AcDbEntity
  8
0
  6
Continuous
 62
               4
100
AcDbCircle
 10
952.38482574048714
 20
400.12059832205864
 30
0.0
 40
1.0
  0
CIRCLE
  5
3A3
100
AcDbEntity
  8
0
  6
Continuous
 62
               4
100
AcDbCircle
 10
952.38482574048714
 20
386.12059832205864
 30
0.0
 40
1.0
  0
CIRCLE
  5
3A4
100
AcDbEntity
  8
0
  6
Continuous
 62
               4
100
AcDbCircle
 10
972.38482497211328
 20
386.12059832205864
 30
0.0
 40
1.0
  0
CIRCLE
  5
3A5
100
AcDbEntity
  8
0
  6
Continuous
 62
               4
100
AcDbCircle
 10
645.38482585091663
 20
386.12059832205864
 30
0.0
 40
1.0
  0
CIRCLE
  5
3A6
100
AcDbEntity
  8
0
  6
Continuous
 62
               4
100
AcDbCircle
 10
952.38482574048714
 20
386.12059832205864
 30
0.0
 40
1.0
  0
CIRCLE
  5
3A7
100
AcDbEntity
  8
0
  6
Continuous
 62
               4
100
AcDbCircle
 10
625.38482585091663
 20
372.12059832205864
 30
0.0
 40
1.0
  0
CIRCLE
  5
3A8
100
AcDbEntity
  8
0
  6
Continuous
 62
               4
100
AcDbCircle
 10
972.38482497211328
 20
372.12059832205864
 30
0.0
 40
1.0
  0
CIRCLE
  5
3A9
100
AcDbEntity
  8
0
  6
Continuous
 62
               4
100
AcDbCircle
 10
347.38482585091663
 20
891.12059832205864
 30
0.0
 40
1.0
  0
CIRCLE
  5
3AA
100
AcDbEntity
  8
0
  6
Continuous
 62
               4
100
AcDbCircle
 10
347.38482585091663
 20
876.12059832205887
 30
0.0
 40
1.0
  0
CIRCLE
  5
3AB
100
AcDbEntity
  8
0
  6
Continuous
 62
               4
100
AcDbCircle
 10
853.38482585091663
 20
591.12059832205887
 30
0.0
 40
1.0
  0
CIRCLE
  5
3AC
100
AcDbEntity
  8
0
  6
Continuous
 62
               4
100
AcDbCircle
 10
853.38482585091663
 20
510.12059945330543
 30
0.0
 40
1.0
  0
CIRCLE
  5
3AD
100
AcDbEntity
  8
0
  6
Continuous
 62
               4
100
AcDbCircle
 10
853.38482585091663
 20
510.12059945330543
 30
0.0
 40
1.0
  0
CIRCLE
  5
3AE
100
AcDbEntity
  8
0
  6
Continuous
 62
               4
100
AcDbCircle
 10
853.38482585091663
 20
472.12059945330543
 30
0.0
 40
1.0
  0
CIRCLE
  5
3AF
100
AcDbEntity
  8
0
  6
Continuous
 62
               4
100
AcDbCircle
 10
853.38482585091663
 20
472.12059945330543
 30
0.0
 40
1.0
  0
CIRCLE
  5
3B0
100
AcDbEntity
  8
0
  6
Continuous
 62
               4
100
AcDbCircle
 10
853.38482585091663
 20
453.12059897646827
 30
0.0
 40
1.0
  0
CIRCLE
  5
3B1
100
AcDbEntity
  8
0
  6
Continuous
 62
               4
100
AcDbCircle
 10
853.38482585091663
 20
453.12059822407855
 30
0.0
 40
1.0
  0
CIRCLE
  5
3B2
100
AcDbEntity
  8
0
  6
Continuous
 62
               4
100
AcDbCircle
 10
853.38482585091663
 20
438.12059870528958
 30
0.0
 40
1.0
  0
ARC
  5
3B3
100
AcDbEntity
  8
0
  6
Continuous
 62
               6
100
AcDbCircle
 10
428.38482585091663
 20
616.12059832205887
 30
0.0
 40
13.0
100
AcDbArc
 50
270.0
 51
0.0
  0
ARC
  5
3B4
100
AcDbEntity
  8
0
  6
Continuous
 62
               6
100
AcDbCircle
 10
462.38482585091663
 20
616.12059832205887
 30
0.0
 40
13.0
100
AcDbArc
 50
180.0
 51
270.0
  0
ARC
  5
3B5
100
AcDbEntity
  8
0
  6
Continuous
 62
               6
100
AcDbCircle
 10
462.38482585091663
 20
766.12059832205887
 30
0.0
 40
13.0
100
AcDbArc
 50
90.000000000000071
 51
180.0
  0
ARC
  5
3B6
100
AcDbEntity
  8
0
  6
Continuous
 62
               6
100
AcDbCircle
 10
428.38482585091663
 20
766.12059832205887
 30
0.0
 40
13.0
100
AcDbArc
 50
0.0
 51
90.000000000000071
  0
ARC
  5
3B7
100
AcDbEntity
  8
0
  6
DASHED
 62
               4
100
AcDbCircle
 10
680.88482585091663
 20
505.62059832205887
 30
0.0
 40
8.5
100
AcDbArc
 50
270.0
 51
0.0
  0
ARC
  5
3B8
100
AcDbEntity
  8
0
  6
DASHED
 62
               4
100
AcDbCircle
 10
624.38482585091663
 20
493.12059832205887
 30
0.0
 40
4.0
100
AcDbArc
 50
90.000000000000071
 51
180.0
  0
ARC
  5
3B9
100
AcDbEntity
  8
0
  6
DASHED
 62
               4
100
AcDbCircle
 10
693.38482585091663
 20
562.12059832205887
 30
0.0
 40
4.0
100
AcDbArc
 50
90.000000000000071
 51
180.0
  0
ARC
  5
3BA
100
AcDbEntity
  8
0
  6
Continuous
 62
               6
100
AcDbCircle
 10
841.38482585091663
 20
646.12059832205864
 30
0.0
 40
4.0
100
AcDbArc
 50
0.0
 51
90.000000000000071
  0
ARC
  5
3BB
100
AcDbEntity
  8
0
  6
Continuous
 62
               6
100
AcDbCircle
 10
900.38482585091708
 20
587.12059832205887
 30
0.0
 40
4.0
100
AcDbArc
 50
0.0
 51
90.000000000000071
  0
ARC
  5
3BC
100
AcDbEntity
  8
0
  6
Continuous
 62
               6
100
AcDbCircle
 10
853.88482585091663
 20
599.62059832205887
 30
0.0
 40
8.5
100
AcDbArc
 50
180.0
 51
270.0
  0
ARC
  5
3BD
100
AcDbEntity
  8
0
  6
Continuous
 62
               6
100
AcDbCircle
 10
826.88482585091685
 20
616.62059832205887
 30
0.0
 40
6.5
100
AcDbArc
 50
269.99999999999977
 51
0.0
  0
ARC
  5
3BE
100
AcDbEntity
  8
0
  6
Continuous
 62
               6
100
AcDbCircle
 10
837.88482585091663
 20
649.62059832205887
 30
0.0
 40
4.5
100
AcDbArc
 50
90.000000000000071
 51
180.0
  0
ARC
  5
3BF
100
AcDbEntity
  8
0
  6
Continuous
 62
               6
100
AcDbCircle
 10
793.88482585091663
 20
605.62059832205887
 30
0.0
 40
4.5
100
AcDbArc
 50
90.000000000000071
 51
180.0
  0
ARC
  5
3C0
100
AcDbEntity
  8
0
  6
Continuous
 62
               6
100
AcDbCircle
 10
709.88482585091663
 20
595.62059832205887
 30
0.0
 40
8.5
100
AcDbArc
 50
90.000000000000071
 51
180.0
  0
ARC
  5
3C1
100
AcDbEntity
  8
0
  6
Continuous
 62
               6
100
AcDbCircle
 10
766.38482585091663
 20
608.12059832205955
 30
0.0
 40
4.0
100
AcDbArc
 50
270.0
 51
0.0
  0
ARC
  5
3C2
100
AcDbEntity
  8
0
  6
Continuous
 62
               6
100
AcDbCircle
 10
697.38482585091754
 20
539.12059832205887
 30
0.0
 40
4.0
100
AcDbArc
 50
270.0
 51
0.0
  0
ARC
  5
3C3
100
AcDbEntity
  8
0
  6
Continuous
 62
               7
100
AcDbCircle
 10
920.38482585091663
 20
658.62059832205864
 30
0.0
 40
10.0
100
AcDbArc
 50
323.13010235415601
 51
36.869897645844013
  0
ARC
  5
3C4
100
AcDbEntity
  8
0
  6
Continuous
 62
               7
100
AcDbCircle
 10
927.13482585091663
 20
649.62059832205864
 30
0.0
 40
3.25
100
AcDbArc
 50
0.0
 51
67.380135051959741
  0
ARC
  5
3C5
100
AcDbEntity
  8
0
  6
Continuous
 62
               7
100
AcDbCircle
 10
927.13482585091663
 20
667.62059832205887
 30
0.0
 40
3.25
100
AcDbArc
 50
292.61986494804012
 51
0.0
  0
ARC
  5
3C6
100
AcDbEntity
  8
0
  6
Continuous
 62
               7
100
AcDbCircle
 10
843.38482585091663
 20
647.62059832205864
 30
0.0
 40
5.0
100
AcDbArc
 50
90.000000000000071
 51
180.0
  0
ARC
  5
3C7
100
AcDbEntity
  8
0
  6
Continuous
 62
               7
100
AcDbCircle
 10
843.38482585091663
 20
647.62059832205864
 30
0.0
 40
17.0
100
AcDbArc
 50
90.000000000000071
 51
180.0
  0
ARC
  5
3C8
100
AcDbEntity
  8
0
  6
Continuous
 62
               6
100
AcDbCircle
 10
839.38482585091685
 20
645.62059832205887
 30
0.0
 40
3.0
100
AcDbArc
 50
89.999999999999957
 51
270.0
  0
ARC
  5
3C9
100
AcDbEntity
  8
0
  6
Continuous
 62
               6
100
AcDbCircle
 10
839.38482585091685
 20
641.62059832205887
 30
0.0
 40
3.0
100
AcDbArc
 50
138.18968510422252
 51
270.0
  0
ARC
  5
3CA
100
AcDbEntity
  8
0
  6
Continuous
 62
               6
100
AcDbCircle
 10
839.38482585091685
 20
637.62059832205887
 30
0.0
 40
3.0
100
AcDbArc
 50
138.18968510422252
 51
270.0
  0
ARC
  5
3CB
100
AcDbEntity
  8
0
  6
Continuous
 62
               6
100
AcDbCircle
 10
839.38482585091685
 20
633.62059832205887
 30
0.0
 40
3.0
100
AcDbArc
 50
138.18968510422252
 51
270.0
  0
ARC
  5
3CC
100
AcDbEntity
  8
0
  6
Continuous
 62
               6
100
AcDbCircle
 10
839.38482585091685
 20
629.62059832205887
 30
0.0
 40
3.0
100
AcDbArc
 50
138.18968510422252
 51
270.0
  0
ARC
  5
3CD
100
AcDbEntity
  8
0
  6
Continuous
 62
               6
100
AcDbCircle
 10
839.38482585091685
 20
625.62059832205887
 30
0.0
 40
3.0
100
AcDbArc
 50
138.18968510422252
 51
270.0
  0
ARC
  5
3CE
100
AcDbEntity
  8
0
  6
Continuous
 62
               6
100
AcDbCircle
 10
839.38482585091685
 20
621.62059832205887
 30
0.0
 40
3.0
100
AcDbArc
 50
138.18968510422252
 51
270.0
  0
ARC
  5
3CF
100
AcDbEntity
  8
0
  6
Continuous
 62
               2
100
AcDbCircle
 10
972.88482585091663
 20
416.62059832182354
 30
0.0
 40
1.5
100
AcDbArc
 50
180.0
 51
0.0
  0
ARC
  5
3D0
100
AcDbEntity
  8
0
  6
Continuous
 62
               7
100
AcDbCircle
 10
605.38482585091663
 20
460.12059832205887
 30
0.0
 40
3.399999999999987
100
AcDbArc
 50
323.9681209275293
 51
66.798893219280558
  0
ARC
  5
3D1
100
AcDbEntity
  8
0
  6
Continuous
 62
               7
100
AcDbCircle
 10
606.88482585091663
 20
460.12059832205887
 30
0.0
 40
0.500000000000029
100
AcDbArc
 50
292.02431283704561
 51
67.975687162959176
  0
ARC
  5
3D2
100
AcDbEntity
  8
0
  6
Continuous
 62
               7
100
AcDbCircle
 10
605.38482585091663
 20
460.12059832205887
 30
0.0
 40
1.7499999999999141
100
AcDbArc
 50
15.358885580823687
 51
44.641114419173633
  0
ARC
  5
3D3
100
AcDbEntity
  8
0
  6
Continuous
 62
               7
100
AcDbCircle
 10
606.13482585091663
 20
461.41963642773521
 30
0.0
 40
0.5000000000000811
100
AcDbArc
 50
352.02431283704931
 51
127.97568716295305
  0
ARC
  5
3D4
100
AcDbEntity
  8
0
  6
Continuous
 62
               7
100
AcDbCircle
 10
605.38482585091663
 20
460.12059832205887
 30
0.0
 40
1.7499999999998901
100
AcDbArc
 50
75.358885580822275
 51
104.64111441917761
  0
ARC
  5
3D5
100
AcDbEntity
  8
0
  6
Continuous
 62
               7
100
AcDbCircle
 10
604.63482585091663
 20
461.41963642773521
 30
0.0
 40
0.500000000000009
100
AcDbArc
 50
52.024312837047034
 51
187.97568716295078
  0
ARC
  5
3D6
100
AcDbEntity
  8
0
  6
Continuous
 62
               7
100
AcDbCircle
 10
605.38482585091663
 20
460.12059832205887
 30
0.0
 40
1.7500000000000071
100
AcDbArc
 50
135.35888558082624
 51
164.64111441917632
  0
ARC
  5
3D7
100
AcDbEntity
  8
0
  6
Continuous
 62
               7
100
AcDbCircle
 10
603.88482585091663
 20
460.12059832205887
 30
0.0
 40
0.499999999999923
100
AcDbArc
 50
112.02431283704092
 51
247.97568716295427
  0
ARC
  5
3D8
100
AcDbEntity
  8
0
  6
Continuous
 62
               7
100
AcDbCircle
 10
604.01311070551321
 20
458.49647864740928
 30
0.0
 40
0.375880325350654
100
AcDbArc
 50
270.0
 51
49.815900051173067
  0
ARC
  5
3D9
100
AcDbEntity
  8
0
  6
Continuous
 62
               7
100
AcDbCircle
 10
605.38482585091663
 20
460.12059832205887
 30
0.0
 40
1.7500000000000731
100
AcDbArc
 50
195.35888558082013
 51
229.81590005117923
  0
ARC
  5
3DA
100
AcDbEntity
  8
0
  6
Continuous
 62
               7
100
AcDbCircle
 10
606.75654099632004
 20
458.49647864740928
 30
0.0
 40
0.375880325350408
100
AcDbArc
 50
130.18409994882703
 51
270.0
  0
ARC
  5
3DB
100
AcDbEntity
  8
0
  6
Continuous
 62
               7
100
AcDbCircle
 10
605.38482585091663
 20
460.12059832205887
 30
0.0
 40
1.7499999999999769
100
AcDbArc
 50
310.18409994882069
 51
344.64111441917987
  0
ARC
  5
3DC
100
AcDbEntity
  8
0
  6
Continuous
 62
               7
100
AcDbCircle
 10
603.82469339913325
 20
463.76046587027554
 30
0.0
 40
0.560132451783488
100
AcDbArc
 50
293.20110678071518
 51
90.0
  0
ARC
  5
3DD
100
AcDbEntity
  8
0
  6
Continuous
 62
               7
100
AcDbCircle
 10
605.38482585091663
 20
460.12059832205887
 30
0.0
 40
3.3999999999999879
100
AcDbArc
 50
113.2011067807195
 51
216.03187907247073
  0
ARC
  5
3DE
100
AcDbEntity
  8
0
  6
Continuous
 62
               7
100
AcDbCircle
 10
606.9449583027
 20
463.76046587027554
 30
0.0
 40
0.560132451783416
100
AcDbArc
 50
90.000000000000071
 51
246.79889321928474
  0
ARC
  5
3DF
100
AcDbEntity
  8
0
  6
Continuous
 62
               7
100
AcDbCircle
 10
545.38482585091663
 20
462.62059832205864
 30
0.0
 40
3.400000000000003
100
AcDbArc
 50
323.9681209275293
 51
17.920213139391453
  0
ARC
  5
3E0
100
AcDbEntity
  8
0
  6
Continuous
 62
               7
100
AcDbCircle
 10
546.88482585091663
 20
462.62059832205864
 30
0.0
 40
0.500000000000029
100
AcDbArc
 50
292.02431283704561
 51
67.975687162959176
  0
ARC
  5
3E1
100
AcDbEntity
  8
0
  6
Continuous
 62
               7
100
AcDbCircle
 10
545.38482585091663
 20
462.62059832205864
 30
0.0
 40
1.7500000000000731
100
AcDbArc
 50
15.358885580823687
 51
44.641114419178848
  0
ARC
  5
3E2
100
AcDbEntity
  8
0
  6
Continuous
 62
               7
100
AcDbCircle
 10
546.13482585091663
 20
463.91963642773521
 30
0.0
 40
0.499999999999967
100
AcDbArc
 50
352.02431283704931
 51
127.97568716294684
  0
ARC
  5
3E3
100
AcDbEntity
  8
0
  6
Continuous
 62
               7
100
AcDbCircle
 10
545.38482585091663
 20
462.62059832205864
 30
0.0
 40
1.750000000000054
100
AcDbArc
 50
75.358885580820214
 51
104.64111441917611
  0
ARC
  5
3E4
100
AcDbEntity
  8
0
  6
Continuous
 62
               7
100
AcDbCircle
 10
544.63482585091663
 20
463.91963642773521
 30
0.0
 40
0.499999999999896
100
AcDbArc
 50
52.02431283704297
 51
187.97568716295257
  0
ARC
  5
3E5
100
AcDbEntity
  8
0
  6
Continuous
 62
               7
100
AcDbCircle
 10
545.38482585091663
 20
462.62059832205864
 30
0.0
 40
1.7500000000000071
100
AcDbArc
 50
135.35888558081851
 51
164.64111441917632
  0
ARC
  5
3E6
100
AcDbEntity
  8
0
  6
Continuous
 62
               7
100
AcDbCircle
 10
543.88482585091663
 20
462.62059832205864
 30
0.0
 40
0.499999999999923
100
AcDbArc
 50
112.02431283704092
 51
247.97568716295427
  0
ARC
  5
3E7
100
AcDbEntity
  8
0
  6
Continuous
 62
               7
100
AcDbCircle
 10
544.01311070551321
 20
460.99647864740928
 30
0.0
 40
0.375880325350828
100
AcDbArc
 50
270.0
 51
49.815900051195456
  0
ARC
  5
3E8
100
AcDbEntity
  8
0
  6
Continuous
 62
               7
100
AcDbCircle
 10
545.38482585091663
 20
462.62059832205864
 30
0.0
 40
1.749999999999899
100
AcDbArc
 50
195.35888558082013
 51
229.8159000511744
  0
ARC
  5
3E9
100
AcDbEntity
  8
0
  6
Continuous
 62
               7
100
AcDbCircle
 10
546.75654099632004
 20
460.99647864740928
 30
0.0
 40
0.375880325350408
100
AcDbArc
 50
130.18409994880452
 51
270.0
  0
ARC
  5
3EA
100
AcDbEntity
  8
0
  6
Continuous
 62
               7
100
AcDbCircle
 10
545.38482585091663
 20
462.62059832205864
 30
0.0
 40
1.7499999999999769
100
AcDbArc
 50
310.18409994882552
 51
344.64111441917987
  0
ARC
  5
3EB
100
AcDbEntity
  8
0
  6
Continuous
 62
               7
100
AcDbCircle
 10
545.38482585091663
 20
424.62059832205864
 30
0.0
 40
3.4000000000000381
100
AcDbArc
 50
143.9681209275293
 51
197.92021313939333
  0
ARC
  5
3EC
100
AcDbEntity
  8
0
  6
Continuous
 62
               7
100
AcDbCircle
 10
546.88482585091663
 20
424.62059832205864
 30
0.0
 40
0.500000000000029
100
AcDbArc
 50
292.02431283704078
 51
67.975687162959176
  0
ARC
  5
3ED
100
AcDbEntity
  8
0
  6
Continuous
 62
               7
100
AcDbCircle
 10
545.38482585091663
 20
424.62059832205864
 30
0.0
 40
1.7500000000000071
100
AcDbArc
 50
315.35888558082632
 51
344.64111441917623
  0
ARC
  5
3EE
100
AcDbEntity
  8
0
  6
Continuous
 62
               7
100
AcDbCircle
 10
546.13482585091663
 20
423.32156021638207
 30
0.0
 40
0.500000000000024
100
AcDbArc
 50
232.02431283704513
 51
7.9756871629637152
  0
ARC
  5
3EF
100
AcDbEntity
  8
0
  6
Continuous
 62
               7
100
AcDbCircle
 10
545.38482585091663
 20
424.62059832205864
 30
0.0
 40
1.7499999999998641
100
AcDbArc
 50
255.35888558082178
 51
284.64111441918158
  0
ARC
  5
3F0
100
AcDbEntity
  8
0
  6
Continuous
 62
               7
100
AcDbCircle
 10
544.63482585091663
 20
423.32156021638207
 30
0.0
 40
0.499999999999947
100
AcDbArc
 50
172.02431283703442
 51
307.97568716296507
  0
ARC
  5
3F1
100
AcDbEntity
  8
0
  6
Continuous
 62
               7
100
AcDbCircle
 10
545.38482585091663
 20
424.62059832205864
 30
0.0
 40
1.749999999999833
100
AcDbArc
 50
195.35888558082357
 51
224.64111441917632
  0
ARC
  5
3F2
100
AcDbEntity
  8
0
  6
Continuous
 62
               7
100
AcDbCircle
 10
543.88482585091663
 20
424.62059832205864
 30
0.0
 40
0.500000000000029
100
AcDbArc
 50
112.02431283704092
 51
247.9756871629591
  0
ARC
  5
3F3
100
AcDbEntity
  8
0
  6
Continuous
 62
               7
100
AcDbCircle
 10
544.01311070551321
 20
426.24471799670812
 30
0.0
 40
0.375880325350408
100
AcDbArc
 50
310.18409994882683
 51
90.0
  0
ARC
  5
3F4
100
AcDbEntity
  8
0
  6
Continuous
 62
               7
100
AcDbCircle
 10
545.38482585091663
 20
424.62059832205864
 30
0.0
 40
1.7500000000000071
100
AcDbArc
 50
130.18409994882077
 51
164.64111441917632
  0
ARC
  5
3F5
100
AcDbEntity
  8
0
  6
Continuous
 62
               7
100
AcDbCircle
 10
546.75654099632004
 20
426.24471799670812
 30
0.0
 40
0.375880325350654
100
AcDbArc
 50
90.000000000000071
 51
229.81590005117312
  0
ARC
  5
3F6
100
AcDbEntity
  8
0
  6
Continuous
 62
               7
100
AcDbCircle
 10
545.38482585091663
 20
424.62059832205864
 30
0.0
 40
1.7500000000000731
100
AcDbArc
 50
15.358885580823687
 51
49.815900051179163
  0
ARC
  5
3F7
100
AcDbEntity
  8
0
  6
Continuous
 62
               7
100
AcDbCircle
 10
604.38482585091663
 20
424.62059832205887
 30
0.0
 40
3.4000000000000732
100
AcDbArc
 50
143.9681209275293
 51
197.92021313939503
  0
ARC
  5
3F8
100
AcDbEntity
  8
0
  6
Continuous
 62
               7
100
AcDbCircle
 10
605.88482585091663
 20
424.62059832205887
 30
0.0
 40
0.500000000000029
100
AcDbArc
 50
292.024312837031
 51
67.975687162959176
  0
ARC
  5
3F9
100
AcDbEntity
  8
0
  6
Continuous
 62
               7
100
AcDbCircle
 10
604.38482585091663
 20
424.62059832205887
 30
0.0
 40
1.7500000000000679
100
AcDbArc
 50
315.35888558082229
 51
344.64111441916913
  0
ARC
  5
3FA
100
AcDbEntity
  8
0
  6
Continuous
 62
               7
100
AcDbCircle
 10
605.13482585091663
 20
423.32156021638207
 30
0.0
 40
0.500000000000009
100
AcDbArc
 50
232.02431283704701
 51
7.9756871629509423
  0
ARC
  5
3FB
100
AcDbEntity
  8
0
  6
Continuous
 62
               7
100
AcDbCircle
 10
604.38482585091663
 20
424.62059832205887
 30
0.0
 40
1.750000000000054
100
AcDbArc
 50
255.35888558082382
 51
284.64111441917612
  0
ARC
  5
3FC
100
AcDbEntity
  8
0
  6
Continuous
 62
               7
100
AcDbCircle
 10
603.63482585091663
 20
423.32156021638207
 30
0.0
 40
0.5000000000000811
100
AcDbArc
 50
172.02431283704914
 51
307.97568716295302
  0
ARC
  5
3FD
100
AcDbEntity
  8
0
  6
Continuous
 62
               7
100
AcDbCircle
 10
604.38482585091663
 20
424.62059832205887
 30
0.0
 40
1.750000000000034
100
AcDbArc
 50
195.35888558083073
 51
224.6411144191776
  0
ARC
  5
3FE
100
AcDbEntity
  8
0
  6
Continuous
 62
               7
100
AcDbCircle
 10
602.88482585091663
 20
424.62059832205887
 30
0.0
 40
0.500000000000239
100
AcDbArc
 50
112.02431283704092
 51
247.97568716296894
  0
ARC
  5
3FF
100
AcDbEntity
  8
0
  6
Continuous
 62
               7
100
AcDbCircle
 10
603.01311070551321
 20
426.24471799670812
 30
0.0
 40
0.375880325350636
100
AcDbArc
 50
310.18409994883262
 51
90.0
  0
ARC
  5
400
100
AcDbEntity
  8
0
  6
Continuous
 62
               7
100
AcDbCircle
 10
604.38482585091663
 20
424.62059832205887
 30
0.0
 40
1.7500000000000071
100
AcDbArc
 50
130.18409994882444
 51
164.64111441917632
  0
ARC
  5
401
100
AcDbEntity
  8
0
  6
Continuous
 62
               7
100
AcDbCircle
 10
605.75654099632004
 20
426.24471799670812
 30
0.0
 40
0.375880325350611
100
AcDbArc
 50
90.000000000000071
 51
229.81590005116752
  0
ARC
  5
402
100
AcDbEntity
  8
0
  6
Continuous
 62
               7
100
AcDbCircle
 10
604.38482585091663
 20
424.62059832205887
 30
0.0
 40
1.7499999999999429
100
AcDbArc
 50
15.358885580823687
 51
49.815900051175547
  0
ARC
  5
403
100
AcDbEntity
  8
0
  6
Continuous
 62
               7
100
AcDbCircle
 10
545.38482585091663
 20
424.62059832205864
 30
0.0
 40
3.3999999999999879
100
AcDbArc
 50
342.07978686060659
 51
36.031879072470716
  0
ARC
  5
404
100
AcDbEntity
  8
0
  6
Continuous
 62
               7
100
AcDbCircle
 10
604.38482585091663
 20
424.62059832205887
 30
0.0
 40
3.3999999999999879
100
AcDbArc
 50
342.07978686060483
 51
36.031879072470716
  0
ARC
  5
405
100
AcDbEntity
  8
0
  6
Continuous
 62
               7
100
AcDbCircle
 10
545.38482585091663
 20
462.62059832205864
 30
0.0
 40
3.3999999999999879
100
AcDbArc
 50
162.07978686060821
 51
216.03187907247073
  0
ARC
  5
406
100
AcDbEntity
  8
0
  6
Continuous
 62
               7
100
AcDbCircle
 10
564.88482585091663
 20
401.62059832205864
 30
0.0
 40
0.5
100
AcDbArc
 50
270.0
 51
90.0
  0
ARC
  5
407
100
AcDbEntity
  8
0
  6
Continuous
 62
               7
100
AcDbCircle
 10
582.68482949712927
 20
460.62060133618343
 30
0.0
 40
0.499999999999956
100
AcDbArc
 50
270.0
 51
0.0001228633897851
  0
ARC
  5
408
100
AcDbEntity
  8
0
  6
Continuous
 62
               7
100
AcDbCircle
 10
567.08482263475719
 20
460.62060133618343
 30
0.0
 40
0.5
100
AcDbArc
 50
180.00000000000011
 51
270.0
  0
ARC
  5
409
100
AcDbEntity
  8
0
  6
Continuous
 62
               7
100
AcDbCircle
 10
567.38482263475692
 20
463.82060133613697
 30
0.0
 40
0.799999999999898
100
AcDbArc
 50
54.204846727500019
 51
180.0
  0
ARC
  5
40A
100
AcDbEntity
  8
0
  6
Continuous
 62
               7
100
AcDbCircle
 10
569.88482263475692
 20
463.62060133618365
 30
0.0
 40
0.5
100
AcDbArc
 50
234.20484673527295
 51
0.0
  0
ARC
  5
40B
100
AcDbEntity
  8
0
  6
Continuous
 62
               7
100
AcDbCircle
 10
579.88482263475692
 20
463.62060133618365
 30
0.0
 40
0.5000000000677231
100
AcDbArc
 50
180.00000000000011
 51
305.79515326471642
  0
ARC
  5
40C
100
AcDbEntity
  8
0
  6
Continuous
 62
               7
100
AcDbCircle
 10
582.38482263475692
 20
463.82060133613697
 30
0.0
 40
0.799999999957327
100
AcDbArc
 50
0.0
 51
125.79515327250324
  0
ARC
  5
40D
100
AcDbEntity
  8
0
  6
Continuous
 62
               7
100
AcDbCircle
 10
568.3851110746815
 20
459.62060133618343
 30
0.0
 40
0.5000000831975831
100
AcDbArc
 50
269.96694722300941
 51
90.03305277699053
  0
ARC
  5
40E
100
AcDbEntity
  8
0
  6
Continuous
 62
               7
100
AcDbCircle
 10
581.38454365358177
 20
459.62060133618343
 30
0.0
 40
0.5000000831975831
100
AcDbArc
 50
89.966947223029052
 51
270.03305277697092
  0
ARC
  5
40F
100
AcDbEntity
  8
0
  6
Continuous
 62
               7
100
AcDbCircle
 10
569.88486975325497
 20
423.62066238063721
 30
0.0
 40
0.49994960094086
100
AcDbArc
 50
359.99265868761393
 51
125.80051620492381
  0
ARC
  5
410
100
AcDbEntity
  8
0
  6
Continuous
 62
               7
100
AcDbCircle
 10
569.38490328216369
 20
422.12051438998787
 30
0.0
 40
0.99991607140061
100
AcDbArc
 50
269.99519063999662
 51
0.0048093570818997
  0
ARC
  5
411
100
AcDbEntity
  8
0
  6
Continuous
 62
               7
100
AcDbCircle
 10
568.3848077899662
 20
427.62059832205887
 30
0.0
 40
0.5000000831975831
100
AcDbArc
 50
269.9669472230031
 51
90.033052776996996
  0
ARC
  5
412
100
AcDbEntity
  8
0
  6
Continuous
 62
               7
100
AcDbCircle
 10
567.38481935004154
 20
423.42059832210532
 30
0.0
 40
0.800000000016687
100
AcDbArc
 50
180.0
 51
305.79522999912365
  0
ARC
  5
413
100
AcDbEntity
  8
0
  6
Continuous
 62
               7
100
AcDbCircle
 10
579.88477840557664
 20
423.62066238063721
 30
0.0
 40
0.499949600890309
100
AcDbArc
 50
54.199483795081342
 51
180.00734131238599
  0
ARC
  5
414
100
AcDbEntity
  8
0
  6
Continuous
 62
               7
100
AcDbCircle
 10
581.38484036886564
 20
427.62059832205887
 30
0.0
 40
0.5000000831975831
100
AcDbArc
 50
89.966947223022572
 51
270.03305277697757
  0
ARC
  5
415
100
AcDbEntity
  8
0
  6
Continuous
 62
               7
100
AcDbCircle
 10
582.3848288087903
 20
423.42059832210532
 30
0.0
 40
0.800000000000103
100
AcDbArc
 50
234.20477000087303
 51
0.0005200015155421
  0
ARC
  5
416
100
AcDbEntity
  8
0
  6
Continuous
 62
               7
100
AcDbCircle
 10
567.08481935007433
 20
426.62059832205887
 30
0.0
 40
0.5
100
AcDbArc
 50
90.000000000000071
 51
180.0
  0
ARC
  5
417
100
AcDbEntity
  8
0
  6
Continuous
 62
               7
100
AcDbCircle
 10
582.68482880879003
 20
426.62059832205887
 30
0.0
 40
0.5
100
AcDbArc
 50
0.0
 51
90.000000000000071
  0
ARC
  5
418
100
AcDbEntity
  8
0
  6
Continuous
 62
               7
100
AcDbCircle
 10
580.3848288087903
 20
422.12059832205887
 30
0.0
 40
1.0
100
AcDbArc
 50
180.00000000000011
 51
270.0
  0
ARC
  5
419
100
AcDbEntity
  8
0
  6
Continuous
 62
               7
100
AcDbCircle
 10
596.38482585091663
 20
393.0855093861262
 30
0.0
 40
1.30000000000001
100
AcDbArc
 50
283.34236379708699
 51
0.0
  0
ARC
  5
41A
100
AcDbEntity
  8
0
  6
Continuous
 62
               7
100
AcDbCircle
 10
595.03482585091672
 20
420.07059832205857
 30
0.0
 40
0.64999999999975
100
AcDbArc
 50
90.000000000000071
 51
270.0
  0
ARC
  5
41B
100
AcDbEntity
  8
0
  6
Continuous
 62
               7
100
AcDbCircle
 10
615.88217171257531
 20
420.32325246039977
 30
0.0
 40
0.297345861658698
100
AcDbArc
 50
21.447736327149475
 51
180.0
  0
ARC
  5
41C
100
AcDbEntity
  8
0
  6
Continuous
 62
               7
100
AcDbCircle
 10
595.88482585091663
 20
401.62059832205864
 30
0.0
 40
0.5
100
AcDbArc
 50
90.000000000000071
 51
270.0
  0
ARC
  5
41D
100
AcDbEntity
  8
0
  6
Continuous
 62
               6
100
AcDbCircle
 10
594.38482585091663
 20
395.92059832205871
 30
0.0
 40
1.0
100
AcDbArc
 50
270.0
 51
0.0
  0
ARC
  5
41E
100
AcDbEntity
  8
0
  6
Continuous
 62
               6
100
AcDbCircle
 10
589.38482585091685
 20
395.92059832205882
 30
0.0
 40
1.000000000000113
100
AcDbArc
 50
180.00000000000011
 51
270.0
  0
ARC
  5
41F
100
AcDbEntity
  8
0
  6
Continuous
 62
               6
100
AcDbCircle
 10
594.38482585091663
 20
400.12059832205864
 30
0.0
 40
1.0
100
AcDbArc
 50
0.0
 51
90.000000000000071
  0
ARC
  5
420
100
AcDbEntity
  8
0
  6
Continuous
 62
               6
100
AcDbCircle
 10
589.38482585091663
 20
400.12059832205864
 30
0.0
 40
1.0
100
AcDbArc
 50
90.000000000000071
 51
180.0
  0
ARC
  5
421
100
AcDbEntity
  8
0
  6
Continuous
 62
               6
100
AcDbCircle
 10
589.38482585091663
 20
385.62059832205864
 30
0.0
 40
1.0
100
AcDbArc
 50
90.000000000000071
 51
180.0
  0
ARC
  5
422
100
AcDbEntity
  8
0
  6
Continuous
 62
               6
100
AcDbCircle
 10
566.38482585091685
 20
395.92059832205882
 30
0.0
 40
1.000000000000113
100
AcDbArc
 50
180.00000000000011
 51
270.0
  0
ARC
  5
423
100
AcDbEntity
  8
0
  6
Continuous
 62
               6
100
AcDbCircle
 10
571.38482585091685
 20
395.9206166326054
 30
0.0
 40
1.000000000000113
100
AcDbArc
 50
269.99999066533269
 51
0.0
  0
ARC
  5
424
100
AcDbEntity
  8
0
  6
Continuous
 62
               6
100
AcDbCircle
 10
566.38482585091685
 20
400.12059832205841
 30
0.0
 40
1.000000000000113
100
AcDbArc
 50
90.000000000000071
 51
180.0
  0
ARC
  5
425
100
AcDbEntity
  8
0
  6
Continuous
 62
               6
100
AcDbCircle
 10
571.38482585091663
 20
400.12059832205864
 30
0.0
 40
1.0
100
AcDbArc
 50
0.0
 51
90.000000000000071
  0
ARC
  5
426
100
AcDbEntity
  8
0
  6
Continuous
 62
               6
100
AcDbCircle
 10
571.38482585091685
 20
385.62059832205864
 30
0.0
 40
1.0
100
AcDbArc
 50
0.0
 51
90.000000000000071
  0
ARC
  5
427
100
AcDbEntity
  8
0
  6
Continuous
 62
               7
100
AcDbCircle
 10
533.48482585091676
 20
475.22059832205855
 30
0.0
 40
0.900000000000091
100
AcDbArc
 50
270.0
 51
90.0
  0
ARC
  5
428
100
AcDbEntity
  8
0
  6
Continuous
 62
               7
100
AcDbCircle
 10
565.28482585091672
 20
475.22059832205878
 30
0.0
 40
0.899999999999807
100
AcDbArc
 50
90.000000000000071
 51
270.0
  0
ARC
  5
429
100
AcDbEntity
  8
0
  6
Continuous
 62
               7
100
AcDbCircle
 10
595.88482585091663
 20
418.62059832205887
 30
0.0
 40
0.5
100
AcDbArc
 50
270.0
 51
0.0
  0
ARC
  5
42A
100
AcDbEntity
  8
0
  6
Continuous
 62
               7
100
AcDbCircle
 10
594.18482585091681
 20
419.42059832205882
 30
0.0
 40
1.30000000000001
100
AcDbArc
 50
180.00000000000011
 51
270.0
  0
ARC
  5
42B
100
AcDbEntity
  8
0
  6
Continuous
 62
               7
100
AcDbCircle
 10
525.88482585091663
 20
475.62059832205864
 30
0.0
 40
0.5
100
AcDbArc
 50
90.000000000000071
 51
180.0
  0
ARC
  5
42C
100
AcDbEntity
  8
0
  6
Continuous
 62
               7
100
AcDbCircle
 10
568.88482585091663
 20
474.62059832205887
 30
0.0
 40
1.5
100
AcDbArc
 50
0.0
 51
90.000000000000071
  0
ARC
  5
42D
100
AcDbEntity
  8
0
  6
Continuous
 62
               7
100
AcDbCircle
 10
541.67403078786072
 20
423.42059832205859
 30
0.0
 40
0.499999999999975
100
AcDbArc
 50
270.0
 51
17.920213139383719
  0
ARC
  5
42E
100
AcDbEntity
  8
0
  6
Continuous
 62
               7
100
AcDbCircle
 10
549.09562091397277
 20
423.42059832205859
 30
0.0
 40
0.5
100
AcDbArc
 50
162.07978686062043
 51
270.0
  0
ARC
  5
42F
100
AcDbEntity
  8
0
  6
Continuous
 62
               7
100
AcDbCircle
 10
600.67403078786049
 20
423.42059832205882
 30
0.0
 40
0.500000000000048
100
AcDbArc
 50
270.0
 51
17.920213139367334
  0
ARC
  5
430
100
AcDbEntity
  8
0
  6
Continuous
 62
               7
100
AcDbCircle
 10
608.09562091397254
 20
423.42059832205882
 30
0.0
 40
0.5
100
AcDbArc
 50
162.07978686062461
 51
270.0
  0
ARC
  5
431
100
AcDbEntity
  8
0
  6
Continuous
 62
               7
100
AcDbCircle
 10
541.67403078786072
 20
463.82059832205857
 30
0.0
 40
0.5
100
AcDbArc
 50
342.07978686059352
 51
90.0
  0
ARC
  5
432
100
AcDbEntity
  8
0
  6
Continuous
 62
               7
100
AcDbCircle
 10
549.09562091397231
 20
463.82059832205857
 30
0.0
 40
0.499999999999937
100
AcDbArc
 50
90.000000000000071
 51
197.9202131394124
  0
ARC
  5
433
100
AcDbEntity
  8
0
  6
Continuous
 62
               7
100
AcDbCircle
 10
564.88482585091663
 20
386.62059832205864
 30
0.0
 40
0.500000000000114
100
AcDbArc
 50
270.0
 51
0.0
  0
ARC
  5
434
100
AcDbEntity
  8
0
  6
Continuous
 62
               7
100
AcDbCircle
 10
583.38482585091663
 20
460.62060133618343
 30
0.0
 40
1.5
100
AcDbArc
 50
270.0
 51
0.0
  0
ARC
  5
435
100
AcDbEntity
  8
0
  6
Continuous
 62
               7
100
AcDbCircle
 10
583.38482585091663
 20
426.62059832205887
 30
0.0
 40
1.5
100
AcDbArc
 50
0.0
 51
90.000000000000071
  0
ARC
  5
436
100
AcDbEntity
  8
0
  6
Continuous
 62
               7
100
AcDbCircle
 10
616.88482585091663
 20
416.12059832205887
 30
0.0
 40
1.3000000000001819
100
AcDbArc
 50
180.00000000000011
 51
270.0
  0
ARC
  5
437
100
AcDbEntity
  8
0
  6
Continuous
 62
               7
100
AcDbCircle
 10
595.88482585091663
 20
386.62059832205864
 30
0.0
 40
0.5
100
AcDbArc
 50
180.00000000000011
 51
270.0
  0
ARC
  5
438
100
AcDbEntity
  8
0
  6
Continuous
 62
               7
100
AcDbCircle
 10
596.38482585091663
 20
419.42059832205882
 30
0.0
 40
1.299999999999897
100
AcDbArc
 50
0.0
 51
90.000000000000071
  0
ARC
  5
439
100
AcDbEntity
  8
0
  6
Continuous
 62
               7
100
AcDbCircle
 10
561.68482610921967
 20
457.42059832205882
 30
0.0
 40
3.1999999999998741
100
AcDbArc
 50
0.0
 51
90.000000000000071
  0
ARC
  5
43A
100
AcDbEntity
  8
0
  6
Continuous
 62
               7
100
AcDbCircle
 10
530.38482585091663
 20
457.42059832205882
 30
0.0
 40
3.1999999999999882
100
AcDbArc
 50
90.000000000000071
 51
180.0
  0
ARC
  5
43B
100
AcDbEntity
  8
0
  6
Continuous
 62
               6
100
AcDbCircle
 10
627.38482585091663
 20
436.12059832205887
 30
0.0
 40
2.0
100
AcDbArc
 50
90.000000000000071
 51
180.0
  0
ARC
  5
43C
100
AcDbEntity
  8
0
  6
Continuous
 62
               6
100
AcDbCircle
 10
643.38482585091663
 20
436.12059832205887
 30
0.0
 40
2.0
100
AcDbArc
 50
0.0
 51
90.000000000000071
  0
ARC
  5
43D
100
AcDbEntity
  8
0
  6
Continuous
 62
               2
100
AcDbCircle
 10
922.884825836299
 20
434.62059821454181
 30
0.0
 40
0.499999985694885
100
AcDbArc
 50
89.999997267923604
 51
270.00000054641788
  0
ARC
  5
43E
100
AcDbEntity
  8
0
  6
Continuous
 62
               2
100
AcDbCircle
 10
674.88482585091663
 20
434.62059926404879
 30
0.0
 40
0.499999999999993
100
AcDbArc
 50
269.99999987469943
 51
89.99999987469775
  0
ARC
  5
43F
100
AcDbEntity
  8
0
  6
Continuous
 62
               7
100
AcDbCircle
 10
635.38482585091663
 20
456.37059935699313
 30
0.0
 40
7.25
100
AcDbArc
 50
226.39718102729637
 51
313.60281897270357
  0
ARC
  5
440
100
AcDbEntity
  8
0
  6
Continuous
 62
               7
100
AcDbCircle
 10
635.88482585091663
 20
466.82059935699317
 30
0.0
 40
1.0
100
AcDbArc
 50
90.000000000000071
 51
180.0
  0
ARC
  5
441
100
AcDbEntity
  8
0
  6
Continuous
 62
               7
100
AcDbCircle
 10
959.88482583108555
 20
455.87059870528958
 30
0.0
 40
7.25
100
AcDbArc
 50
226.39718102729637
 51
313.60281897270357
  0
ARC
  5
442
100
AcDbEntity
  8
0
  6
Continuous
 62
               7
100
AcDbCircle
 10
960.38482583108555
 20
466.32059870528974
 30
0.0
 40
1.0
100
AcDbArc
 50
90.000000000000071
 51
180.0
  0
ARC
  5
443
100
AcDbEntity
  8
0
  6
Continuous
 62
               7
100
AcDbCircle
 10
798.88482579570211
 20
440.37059903881027
 30
0.0
 40
7.25
100
AcDbArc
 50
226.39718102729637
 51
313.60281897270357
  0
ARC
  5
444
100
AcDbEntity
  8
0
  6
Continuous
 62
               7
100
AcDbCircle
 10
799.38482579570211
 20
464.8205990388102
 30
0.0
 40
1.0
100
AcDbArc
 50
90.000000000000071
 51
180.0
  0
TEXT
  5
445
100
AcDbEntity
  8
0
 62
               7
100
AcDbText
 10
639.3844365495471
 20
1032.1203043905521
 30
0.0
 40
8.0
  1
400
 41
0.7695
  7
FontTableH_0
 72
               5
 11
648.3844365495471
 21
1032.1203043905521
 31
0.0
100
AcDbText
  0
TEXT
  5
446
100
AcDbEntity
  8
0
 62
               7
100
AcDbText
 10
889.38419254954681
 20
1032.1203043905521
 30
0.0
 40
8.0
  1
100
 41
0.7695
  7
FontTableH_0
 72
               5
 11
898.38419254954681
 21
1032.1203043905521
 31
0.0
100
AcDbText
  0
TEXT
  5
447
100
AcDbEntity
  8
0
 62
               7
100
AcDbText
 10
954.38443654954688
 20
1032.1203043905521
 30
0.0
 40
8.0
  1
26
 41
0.7695
  7
FontTableH_0
 72
               5
 11
960.38443654954688
 21
1032.1203043905521
 31
0.0
100
AcDbText
  0
TEXT
  5
448
100
AcDbEntity
  8
0
 62
               7
100
AcDbText
 10
966.38443654954665
 20
1018.1203043905521
 30
0.0
 40
8.0
  1
6
 41
0.7695
  7
FontTableH_0
 72
               5
 11
969.38443654954665
 21
1018.1203043905521
 31
0.0
100
AcDbText
  0
TEXT
  5
449
100
AcDbEntity
  8
0
 62
               7
100
AcDbText
 10
951.38443654954688
 20
1018.1203043905521
 30
0.0
 40
8.0
  1
20
 41
0.7695
  7
FontTableH_0
 72
               5
 11
957.38443654954688
 21
1018.1203043905521
 31
0.0
100
AcDbText
  0
TEXT
  5
44A
100
AcDbEntity
  8
0
 62
               7
100
AcDbText
 10
916.38419254954681
 20
1018.1203043905521
 30
0.0
 40
8.0
  1
50
 41
0.7695
  7
FontTableH_0
 72
               5
 11
922.38419254954681
 21
1018.1203043905521
 31
0.0
100
AcDbText
  0
TEXT
  5
44B
100
AcDbEntity
  8
0
 62
               7
100
AcDbText
 10
866.38431454954673
 20
1018.1203043905521
 30
0.0
 40
8.0
  1
50
 41
0.7695
  7
FontTableH_0
 72
               5
 11
872.38431454954673
 21
1018.1203043905521
 31
0.0
100
AcDbText
  0
TEXT
  5
44C
100
AcDbEntity
  8
0
 62
               7
100
AcDbText
 10
828.88443654954688
 20
1018.1203043905521
 30
0.0
 40
8.0
  1
25
 41
0.7695
  7
FontTableH_0
 72
               5
 11
834.88443654954688
 21
1018.1203043905521
 31
0.0
100
AcDbText
  0
TEXT
  5
44D
100
AcDbEntity
  8
0
 62
               7
100
AcDbText
 10
488.38443654954665
 20
835.12030439055206
 30
0.0
 40
7.9999999999999716
  1
100
 50
89.999981276031491
 41
0.7695
  7
FontTableH_0
 72
               5
 11
488.38443949070074
 21
844.12030439055161
 31
0.0
100
AcDbText
  0
TEXT
  5
44E
100
AcDbEntity
  8
0
 62
               7
100
AcDbText
 10
664.3844365495471
 20
289.12060939055186
 30
0.0
 40
8.0
  1
450
 41
0.7695
  7
FontTableH_0
 72
               5
 11
673.3844365495471
 21
289.12060939055186
 31
0.0
100
AcDbText
  0
TEXT
  5
44F
100
AcDbEntity
  8
0
 62
               7
100
AcDbText
 10
433.38440554954661
 20
1062.1205483905519
 30
0.0
 40
8.0
  1
通リ芯
 41
0.7695
  7
FontTableH_0
 72
               5
 11
457.38440554954661
 21
1062.1205483905519
 31
0.0
100
AcDbText
  0
TEXT
  5
450
100
AcDbEntity
  8
0
 62
               7
100
AcDbText
 10
1110.3844365495465
 20
735.12060939055209
 30
0.0
 40
7.9999999999999716
  1
300
 50
89.999981276032244
 41
0.7695
  7
FontTableH_0
 72
               5
 11
1110.3844394907005
 21
744.12060939055164
 31
0.0
100
AcDbText
  0
TEXT
  5
451
100
AcDbEntity
  8
0
 62
               7
100
AcDbText
 10
1157.3844365495465
 20
892.12030439055206
 30
0.0
 40
8.0
  1
▽２ＦＬ
 41
0.7695
  7
FontTableH_0
 72
               5
 11
1189.3844365495465
 21
892.12030439055206
 31
0.0
100
AcDbText
  0
TEXT
  5
452
100
AcDbEntity
  8
0
 62
               7
100
AcDbText
 10
1110.3848025495467
 20
507.62060939055198
 30
0.0
 40
7.9999999999999716
  1
155
 50
89.999981276032244
 41
0.7695
  7
FontTableH_0
 72
               5
 11
1110.3848054907007
 21
516.62060939055152
 31
0.0
100
AcDbText
  0
TEXT
  5
453
100
AcDbEntity
  8
0
 62
               7
100
AcDbText
 10
1059.3878545495459
 20
1072.120182390551
 30
0.0
 40
8.0
  1
外壁材：立ハゼ葺(W=225） フッ素ステンレス t0.4
 41
0.7695
  7
FontTableH_0
 72
               5
 11
1235.5115186820258
 21
1072.120182390551
 31
0.0
100
AcDbText
  0
TEXT
  5
454
100
AcDbEntity
  8
0
 62
               7
100
AcDbText
 10
1059.3856565495457
 20
1058.1211583905517
 30
0.0
 40
8.0
  1
下葺材：ゴムアスファルトル－フィング t1.0
 41
0.7695
  7
FontTableH_0
 72
               5
 11
1221.4480431141324
 21
1058.1211583905517
 31
0.0
100
AcDbText
  0
TEXT
  5
455
100
AcDbEntity
  8
0
 62
               7
100
AcDbText
 10
1059.3856565495457
 20
1044.121158390552
 30
0.0
 40
8.0
  1
フレキシブルボ－ド t6（別途工事）
 41
0.7695
  7
FontTableH_0
 72
               5
 11
1190.4689927240338
 21
1044.121158390552
 31
0.0
100
AcDbText
  0
TEXT
  5
456
100
AcDbEntity
  8
0
 62
               7
100
AcDbText
 10
1059.3856565495457
 20
1030.121158390552
 30
0.0
 40
8.0
  1
ネオマフォ－ム t20（別途工事）
 41
0.7695
  7
FontTableH_0
 72
               5
 11
1177.7247578360411
 21
1030.121158390552
 31
0.0
100
AcDbText
  0
TEXT
  5
457
100
AcDbEntity
  8
0
 62
               7
100
AcDbText
 10
1059.3856565495457
 20
1016.1212193905521
 30
0.0
 40
8.0
  1
ＡＬＣ板 t100（別途工事）
 41
0.7695
  7
FontTableH_0
 72
               5
 11
1156.6078764538097
 21
1016.1212193905521
 31
0.0
100
AcDbText
  0
TEXT
  5
458
100
AcDbEntity
  8
0
 62
               7
100
AcDbText
 10
980.38480254954686
 20
1032.1206093905521
 30
0.0
 40
8.0
  1
20
 41
0.7695
  7
FontTableH_0
 72
               5
 11
986.38480254954686
 21
1032.1206093905521
 31
0.0
100
AcDbText
  0
TEXT
  5
459
100
AcDbEntity
  8
0
 62
               7
100
AcDbText
 10
1124.3848025495467
 20
422.12060939055198
 30
0.0
 40
7.9999999999999716
  1
20
 50
89.999981276033665
 41
0.7695
  7
FontTableH_0
 72
               5
 11
1124.3848045103159
 21
428.12060939055164
 31
0.0
100
AcDbText
  0
TEXT
  5
45A
100
AcDbEntity
  8
0
 62
               7
100
AcDbText
 10
979.51334254954679
 20
359.12085339055193
 30
0.0
 40
8.0
  1
見切リ水切リ：外壁同材
 41
0.7695
  7
FontTableH_0
 72
               5
 11
1067.5133425495469
 21
359.12085339055193
 31
0.0
100
AcDbText
  0
TEXT
  5
45B
100
AcDbEntity
  8
0
 62
               7
100
AcDbText
 10
718.55521254954681
 20
352.12091439055189
 30
0.0
 40
8.0
  1
見切縁：外壁同材
 41
0.7695
  7
FontTableH_0
 72
               5
 11
782.55521254954681
 21
352.12091439055189
 31
0.0
100
AcDbText
  0
TEXT
  5
45C
100
AcDbEntity
  8
0
 62
               7
100
AcDbText
 10
699.19718054954694
 20
338.1206393905519
 30
0.0
 40
8.0
  1
コ－キング（別途工事）
 41
0.7695
  7
FontTableH_0
 72
               5
 11
787.19718054954694
 21
338.1206393905519
 31
0.0
100
AcDbText
  0
TEXT
  5
45D
100
AcDbEntity
  8
0
 62
               7
100
AcDbText
 10
495.30191654954672
 20
573.12121939055191
 30
0.0
 40
8.0
  1
埋込金物：Ｌ－75×75×6 ＠900（別途工事）
 41
0.7695
  7
FontTableH_0
 72
               5
 11
653.98831516538382
 21
573.12121939055191
 31
0.0
100
AcDbText
  0
TEXT
  5
45E
100
AcDbEntity
  8
0
 62
               7
100
AcDbText
 10
539.42478054954688
 20
615.12067039055205
 30
0.0
 40
8.0
  1
Ｌ－65×65×6 ＠900（別途工事）
 41
0.7695
  7
FontTableH_0
 72
               5
 11
657.14727692796862
 21
615.12067039055205
 31
0.0
100
AcDbText
  0
TEXT
  5
45F
100
AcDbEntity
  8
0
 62
               7
100
AcDbText
 10
620.86813954954698
 20
685.12079239055197
 30
0.0
 40
8.0
  1
Ｌ－50×50×6 ＠900（別途工事）
 41
0.7695
  7
FontTableH_0
 72
               5
 11
738.59063592796872
 21
685.12079239055197
 31
0.0
100
AcDbText
  0
TEXT
  5
460
100
AcDbEntity
  8
0
 62
               7
100
AcDbText
 10
735.13699954954666
 20
560.62134139055206
 30
0.0
 40
8.0
  1
Ｌ－65×65×6 通シ
 41
0.7695
  7
FontTableH_0
 72
               5
 11
802.63699954954666
 21
560.62134139055206
 31
0.0
100
AcDbText
  0
TEXT
  5
461
100
AcDbEntity
  8
0
 62
               7
100
AcDbText
 10
606.38651154954675
 20
331.12076139055193
 30
0.0
 40
8.0
  1
30
 41
0.7695
  7
FontTableH_0
 72
               5
 11
612.38651154954675
 21
331.12076139055193
 31
0.0
100
AcDbText
  0
TEXT
  5
462
100
AcDbEntity
  8
0
 62
               7
100
AcDbText
 10
576.38651154954675
 20
331.12076139055193
 30
0.0
 40
8.0
  1
30
 41
0.7695
  7
FontTableH_0
 72
               5
 11
582.38651154954675
 21
331.12076139055193
 31
0.0
100
AcDbText
  0
TEXT
  5
463
100
AcDbEntity
  8
0
 62
               7
100
AcDbText
 10
541.38657254954671
 20
331.12076139055193
 30
0.0
 40
8.0
  1
40
 41
0.7695
  7
FontTableH_0
 72
               5
 11
547.38657254954671
 21
331.12076139055193
 31
0.0
100
AcDbText
  0
TEXT
  5
464
100
AcDbEntity
  8
0
 62
               7
100
AcDbText
 10
511.3866335495469
 20
317.12082239055201
 30
0.0
 40
8.0
  1
20
 41
0.7695
  7
FontTableH_0
 72
               5
 11
517.3866335495469
 21
317.12082239055201
 31
0.0
100
AcDbText
  0
TEXT
  5
465
100
AcDbEntity
  8
0
 62
               7
100
AcDbText
 10
569.3866335495469
 20
317.12079239055197
 30
0.0
 40
8.0
  1
100
 41
0.7695
  7
FontTableH_0
 72
               5
 11
578.3866335495469
 21
317.12079239055197
 31
0.0
100
AcDbText
  0
TEXT
  5
466
100
AcDbEntity
  8
0
 62
               7
100
AcDbText
 10
471.38651154954675
 20
331.12076139055193
 30
0.0
 40
8.0
  1
60
 41
0.7695
  7
FontTableH_0
 72
               5
 11
477.38651154954675
 21
331.12076139055193
 31
0.0
100
AcDbText
  0
TEXT
  5
467
100
AcDbEntity
  8
0
 62
               7
100
AcDbText
 10
411.3866335495469
 20
331.12076139055193
 30
0.0
 40
8.0
  1
60
 41
0.7695
  7
FontTableH_0
 72
               5
 11
417.3866335495469
 21
331.12076139055193
 31
0.0
100
AcDbText
  0
TEXT
  5
468
100
AcDbEntity
  8
0
 62
               7
100
AcDbText
 10
439.3866335495469
 20
317.12079239055197
 30
0.0
 40
8.0
  1
120
 41
0.7695
  7
FontTableH_0
 72
               5
 11
448.3866335495469
 21
317.12079239055197
 31
0.0
100
AcDbText
  0
TEXT
  5
469
100
AcDbEntity
  8
0
 62
               7
100
AcDbText
 10
318.38480254954686
 20
685.12060939055209
 30
0.0
 40
7.9999999999999716
  1
400
 50
89.999981276031491
 41
0.7695
  7
FontTableH_0
 72
               5
 11
318.38480549070096
 21
694.12060939055164
 31
0.0
100
AcDbText
  0
TEXT
  5
46A
100
AcDbEntity
  8
0
 62
               7
100
AcDbText
 10
318.38480254954686
 20
459.62067039055182
 30
0.0
 40
7.9999999999999716
  1
55
 50
89.999981276031491
 41
0.7695
  7
FontTableH_0
 72
               5
 11
318.38480451031626
 21
465.62067039055148
 31
0.0
100
AcDbText
  0
TEXT
  5
46B
100
AcDbEntity
  8
0
 62
               7
100
AcDbText
 10
1124.3848025495467
 20
657.62060939055209
 30
0.0
 40
7.9999999999999716
  1
455
 50
89.999981276032244
 41
0.7695
  7
FontTableH_0
 72
               5
 11
1124.3848054907007
 21
666.62060939055164
 31
0.0
100
AcDbText
  0
TEXT
  5
46C
100
AcDbEntity
  8
0
 62
               7
100
AcDbText
 10
626.88480254954686
 20
1018.1206093905521
 30
0.0
 40
7.9999999999997717
  1
375
 41
0.7695
  7
FontTableH_0
 72
               5
 11
635.88480254954686
 21
1018.1206093905521
 31
0.0
100
AcDbText
  0
TEXT
  5
46D
100
AcDbEntity
  8
0
 62
               7
100
AcDbText
 10
490.38480254954686
 20
399.62060939055186
 30
0.0
 40
8.0000000000000853
  1
35
 50
89.999981276031491
 41
0.7695
  7
FontTableH_0
 72
               5
 11
490.38480451031626
 21
405.62060939055152
 31
0.0
100
AcDbText
  0
TEXT
  5
46E
100
AcDbEntity
  8
0
 62
               7
100
AcDbText
 10
490.38480254954686
 20
452.12060939055186
 30
0.0
 40
7.9999999999999716
  1
70
 50
89.999981276031491
 41
0.7695
  7
FontTableH_0
 72
               5
 11
490.38480451031626
 21
458.12060939055152
 31
0.0
100
AcDbText
  0
TEXT
  5
46F
100
AcDbEntity
  8
0
 62
               7
100
AcDbText
 10
564.38480254954686
 20
755.12060939055209
 30
0.0
 40
8.0
  1
250
 41
0.7695
  7
FontTableH_0
 72
               5
 11
573.38480254954686
 21
755.12060939055209
 31
0.0
100
AcDbText
  0
TEXT
  5
470
100
AcDbEntity
  8
0
 62
               7
100
AcDbText
 10
789.38480254954686
 20
755.12060939055209
 30
0.0
 40
8.0
  1
200
 41
0.7695
  7
FontTableH_0
 72
               5
 11
798.38480254954686
 21
755.12060939055209
 31
0.0
100
AcDbText
  0
TEXT
  5
471
100
AcDbEntity
  8
0
 62
               7
100
AcDbText
 10
751.88480254954686
 20
741.12060939055209
 30
0.0
 40
8.0
  1
125
 41
0.7695
  7
FontTableH_0
 72
               5
 11
760.88480254954686
 21
741.12060939055209
 31
0.0
100
AcDbText
  0
TEXT
  5
472
100
AcDbEntity
  8
0
 62
               7
100
AcDbText
 10
828.88480254954686
 20
741.12060939055209
 30
0.0
 40
8.0
  1
25
 41
0.7695
  7
FontTableH_0
 72
               5
 11
834.88480254954686
 21
741.12060939055209
 31
0.0
100
AcDbText
  0
TEXT
  5
473
100
AcDbEntity
  8
0
 62
               7
100
AcDbText
 10
866.38480254954686
 20
741.12060939055209
 30
0.0
 40
8.0
  1
50
 41
0.7695
  7
FontTableH_0
 72
               5
 11
872.38480254954686
 21
741.12060939055209
 31
0.0
100
AcDbText
  0
TEXT
  5
474
100
AcDbEntity
  8
0
 62
               7
100
AcDbText
 10
631.38480254954686
 20
387.1206393905519
 30
0.0
 40
7.9999999999998863
  1
20
 41
0.7695
  7
FontTableH_0
 72
               5
 11
637.38480254954686
 21
387.1206393905519
 31
0.0
100
AcDbText
  0
TEXT
  5
475
100
AcDbEntity
  8
0
 62
               7
100
AcDbText
 10
656.38480254954686
 20
401.12060939055198
 30
0.0
 40
8.0000000000001137
  1
30
 41
0.7695
  7
FontTableH_0
 72
               5
 11
662.38480254954686
 21
401.12060939055198
 31
0.0
100
AcDbText
  0
TEXT
  5
476
100
AcDbEntity
  8
0
 62
               7
100
AcDbText
 10
792.88480254954686
 20
401.12060939055198
 30
0.0
 40
8.0
  1
247
 41
0.7695
  7
FontTableH_0
 72
               5
 11
801.88480254954686
 21
401.12060939055198
 31
0.0
100
AcDbText
  0
TEXT
  5
477
100
AcDbEntity
  8
0
 62
               7
100
AcDbText
 10
933.38480254954686
 20
401.12060939055198
 30
0.0
 40
8.0000000000001137
  1
30
 41
0.7695
  7
FontTableH_0
 72
               5
 11
939.38480254954686
 21
401.12060939055198
 31
0.0
100
AcDbText
  0
TEXT
  5
478
100
AcDbEntity
  8
0
 62
               7
100
AcDbText
 10
958.38480254954686
 20
387.1206393905519
 30
0.0
 40
7.9999999999998863
  1
20
 41
0.7695
  7
FontTableH_0
 72
               5
 11
964.38480254954686
 21
387.1206393905519
 31
0.0
100
AcDbText
  0
TEXT
  5
479
100
AcDbEntity
  8
0
 62
               7
100
AcDbText
 10
792.88480254954686
 20
387.12060939055186
 30
0.0
 40
8.0
  1
307
 41
0.7695
  7
FontTableH_0
 72
               5
 11
801.88480254954686
 21
387.12060939055186
 31
0.0
100
AcDbText
  0
TEXT
  5
47A
100
AcDbEntity
  8
0
 62
               7
100
AcDbText
 10
792.88480254954686
 20
373.12060939055186
 30
0.0
 40
8.0
  1
347
 41
0.7695
  7
FontTableH_0
 72
               5
 11
801.88480254954686
 21
373.12060939055186
 31
0.0
100
AcDbText
  0
TEXT
  5
47B
100
AcDbEntity
  8
0
 62
               7
100
AcDbText
 10
540.54990254954657
 20
517.12060939055186
 30
0.0
 40
8.0
  1
野縁（別途工事）
 41
0.7695
  7
FontTableH_0
 72
               5
 11
604.54990254954657
 21
517.12060939055186
 31
0.0
100
AcDbText
  0
TEXT
  5
47C
100
AcDbEntity
  8
0
 62
               7
100
AcDbText
 10
729.38480254954686
 20
527.12076139055193
 30
0.0
 40
8.0
  1
Ａ
 41
0.7695
  7
FontTableH_0
 72
               5
 11
737.38480254954686
 21
527.12076139055193
 31
0.0
100
AcDbText
  0
TEXT
  5
47D
100
AcDbEntity
  8
0
 62
               7
100
AcDbText
 10
729.38480254954686
 20
409.12076139055193
 30
0.0
 40
8.0
  1
Ａ
 41
0.7695
  7
FontTableH_0
 72
               5
 11
737.38480254954686
 21
409.12076139055193
 31
0.0
100
AcDbText
  0
TEXT
  5
47E
100
AcDbEntity
  8
0
 62
               7
100
AcDbText
 10
1161.3848025495467
 20
437.12060939055186
 30
0.0
 40
8.0
  1
▽１ＦＬ＋2,620
 41
0.7695
  7
FontTableH_0
 72
               5
 11
1217.6348025495467
 21
437.12060939055186
 31
0.0
100
AcDbText
  0
TEXT
  5
47F
100
AcDbEntity
  8
0
 62
               7
100
AcDbText
 10
1153.3844365495465
 20
882.12030439055206
 30
0.0
 40
8.0
  1
(△１ＦＬ＋3,075)
 41
0.7695
  7
FontTableH_0
 72
               5
 11
1215.5997125822328
 21
882.12030439055206
 31
0.0
100
AcDbText
  0
TEXT
  5
480
100
AcDbEntity
  8
0
 62
               7
100
AcDbText
 10
346.38483254954679
 20
879.62060939055209
 30
0.0
 40
7.9999999999999716
  1
15
 50
89.999981276031491
 41
0.7695
  7
FontTableH_0
 72
               5
 11
346.38483451031618
 21
885.62060939055186
 31
0.0
100
AcDbText
  0
TEXT
  5
481
100
AcDbEntity
  8
0
 62
               7
100
AcDbText
 10
852.38480254954686
 20
546.62067039055205
 30
0.0
 40
7.9999999999999716
  1
83
 50
89.999981276031491
 41
0.7695
  7
FontTableH_0
 72
               5
 11
852.38480451031626
 21
552.62067039055182
 31
0.0
100
AcDbText
  0
TEXT
  5
482
100
AcDbEntity
  8
0
 62
               7
100
AcDbText
 10
852.38480254954686
 20
487.12067039055205
 30
0.0
 40
7.9999999999999716
  1
38
 50
89.999981276031491
 41
0.7695
  7
FontTableH_0
 72
               5
 11
852.38480451031626
 21
493.12067039055171
 31
0.0
100
AcDbText
  0
TEXT
  5
483
100
AcDbEntity
  8
0
 62
               7
100
AcDbText
 10
852.38480254954686
 20
458.62067039055205
 30
0.0
 40
7.9999999999999716
  1
19
 50
89.999981276031491
 41
0.7695
  7
FontTableH_0
 72
               5
 11
852.38480451031626
 21
464.62067039055171
 31
0.0
100
AcDbText
  0
TEXT
  5
484
100
AcDbEntity
  8
0
 62
               7
100
AcDbText
 10
852.38480254954686
 20
441.62067039055205
 30
0.0
 40
7.9999999999999716
  1
15
 50
89.999981276031491
 41
0.7695
  7
FontTableH_0
 72
               5
 11
852.38480451031626
 21
447.62067039055171
 31
0.0
100
AcDbText
  0
TEXT
  5
485
100
AcDbEntity
  8
0
 62
               7
100
AcDbText
 10
759.13699954954666
 20
550.62134139055206
 30
0.0
 40
8.0
  1
（別途工事）
 41
0.7695
  7
FontTableH_0
 72
               5
 11
807.13699954954666
 21
550.62134139055206
 31
0.0
100
AcDbText
  0
TEXT
  5
486
100
AcDbEntity
  8
0
 62
               7
100
AcDbText
 10
888.08396054954676
 20
331.12076139055193
 30
0.0
 40
7.9999999999998863
  1
軒天：外壁同材
 41
0.7695
  7
FontTableH_0
 72
               5
 11
944.08396054954676
 21
331.12076139055193
 31
0.0
100
AcDbText
  0
TEXT
  5
487
100
AcDbEntity
  8
0
 62
               7
100
AcDbText
 10
937.73605954954667
 20
345.1206393905519
 30
0.0
 40
8.0
  1
野地板 t15（別途工事）
 41
0.7695
  7
FontTableH_0
 72
               5
 11
1023.6532202439624
 21
345.1206393905519
 31
0.0
100
AcDbText
  0
TEXT
  5
488
100
AcDbEntity
  8
0
 62
               7
100
AcDbText
 10
1016.6424315495466
 20
373.12060939055186
 30
0.0
 40
8.0
  1
力板：外壁同材
 41
0.7695
  7
FontTableH_0
 72
               5
 11
1072.6424315495465
 21
373.12060939055186
 31
0.0
100
AcDbText
  0
LINE
  5
489
100
AcDbEntity
  8
2
  6
Continuous
 62
               6
100
AcDbLine
 10
1205.6690672734157
 20
324.27959349419461
 30
0.0
 11
1395.6690672734157
 21
324.27959349419461
 31
0.0
  0
LINE
  5
48A
100
AcDbEntity
  8
2
  6
Continuous
 62
               6
100
AcDbLine
 10
1205.6690672734157
 20
343.27959349419461
 30
0.0
 11
1395.6690672734157
 21
343.27959349419461
 31
0.0
  0
LINE
  5
48B
100
AcDbEntity
  8
2
  6
DASHED
 62
               6
100
AcDbLine
 10
1205.6690672734157
 20
325.07959349419457
 30
0.0
 11
1395.6690672734157
 21
325.07959349419457
 31
0.0
  0
LINE
  5
48C
100
AcDbEntity
  8
2
  6
DASHED
 62
               6
100
AcDbLine
 10
1205.6690672734157
 20
342.47959349419466
 30
0.0
 11
1395.6690672734157
 21
342.47959349419466
 31
0.0
  0
LINE
  5
48D
100
AcDbEntity
  8
2
  6
Continuous
 62
               7
100
AcDbLine
 10
1334.6690672734157
 20
381.27959349419461
 30
0.0
 11
1346.6690672734157
 21
381.27959349419461
 31
0.0
  0
LINE
  5
48E
100
AcDbEntity
  8
2
  6
Continuous
 62
               7
100
AcDbLine
 10
1334.6690672734157
 20
381.27959349419461
 30
0.0
 11
1334.6690672734157
 21
343.27959349419461
 31
0.0
  0
LINE
  5
48F
100
AcDbEntity
  8
2
  6
Continuous
 62
               7
100
AcDbLine
 10
1346.6690672734157
 20
381.27959349419461
 30
0.0
 11
1346.6690672734157
 21
379.87959349419452
 31
0.0
  0
LINE
  5
490
100
AcDbEntity
  8
2
  6
Continuous
 62
               7
100
AcDbLine
 10
1334.6690672734157
 20
343.27959349419461
 30
0.0
 11
1346.6690672734157
 21
343.27959349419461
 31
0.0
  0
LINE
  5
491
100
AcDbEntity
  8
2
  6
Continuous
 62
               7
100
AcDbLine
 10
1346.6690672734157
 20
379.87959349419452
 30
0.0
 11
1336.0690672734158
 21
379.87959349419452
 31
0.0
  0
LINE
  5
492
100
AcDbEntity
  8
2
  6
Continuous
 62
               7
100
AcDbLine
 10
1336.0690672734158
 20
379.87959349419452
 30
0.0
 11
1336.0690672734158
 21
344.67959349419471
 31
0.0
  0
LINE
  5
493
100
AcDbEntity
  8
2
  6
Continuous
 62
               7
100
AcDbLine
 10
1336.0690672734158
 20
344.67959349419471
 30
0.0
 11
1346.6690672734157
 21
344.67959349419471
 31
0.0
  0
LINE
  5
494
100
AcDbEntity
  8
2
  6
Continuous
 62
               7
100
AcDbLine
 10
1346.6690672734157
 20
344.67959349419471
 30
0.0
 11
1346.6690672734157
 21
343.27959349419461
 31
0.0
  0
LINE
  5
495
100
AcDbEntity
  8
2
  6
Continuous
 62
               4
100
AcDbLine
 10
1470.6690672734157
 20
333.77959349419461
 30
0.0
 11
1484.2367985993719
 21
357.27959349419461
 31
0.0
  0
LINE
  5
496
100
AcDbEntity
  8
2
  6
Continuous
 62
               4
100
AcDbLine
 10
1470.6690672734157
 20
333.77959349419461
 30
0.0
 11
1472.2219815440308
 21
339.57514845192907
 31
0.0
  0
LINE
  5
497
100
AcDbEntity
  8
2
  6
Continuous
 62
               4
100
AcDbLine
 10
1470.6690672734157
 20
333.77959349419461
 30
0.0
 11
1474.9117079605339
 21
338.02223418131382
 31
0.0
  0
LINE
  5
498
100
AcDbEntity
  8
2
  6
Continuous
 62
               4
100
AcDbLine
 10
1484.2367985993719
 20
357.27959349419461
 30
0.0
 11
1555.2328401473869
 21
357.27959349419461
 31
0.0
  0
LINE
  5
499
100
AcDbEntity
  8
2
  6
Continuous
 62
               4
100
AcDbLine
 10
1341.3690672734147
 20
344.67959349419471
 30
0.0
 11
1356.7265844338599
 21
371.27959349419461
 31
0.0
  0
LINE
  5
49A
100
AcDbEntity
  8
2
  6
Continuous
 62
               4
100
AcDbLine
 10
1341.3690672734147
 20
344.67959349419471
 30
0.0
 11
1342.9219815440306
 21
350.47514845192904
 31
0.0
  0
LINE
  5
49B
100
AcDbEntity
  8
2
  6
Continuous
 62
               4
100
AcDbLine
 10
1341.3690672734147
 20
344.67959349419471
 30
0.0
 11
1345.6117079605356
 21
348.92223418131391
 31
0.0
  0
LINE
  5
49C
100
AcDbEntity
  8
2
  6
Continuous
 62
               4
100
AcDbLine
 10
1356.7265844338599
 20
371.27959349419461
 30
0.0
 11
1443.3955039853599
 21
371.27959349419461
 31
0.0
  0
LINE
  5
49D
100
AcDbEntity
  8
2
  6
Continuous
 62
               4
100
AcDbLine
 10
1588.1690672734157
 20
262.2795934941945
 30
0.0
 11
1580.1690672734157
 21
264.42318703364356
 31
0.0
  0
LINE
  5
49E
100
AcDbEntity
  8
2
  6
Continuous
 62
               4
100
AcDbLine
 10
1578.1690672734157
 20
258.27959349419461
 30
0.0
 11
1580.1690672734157
 21
264.42318703364356
 31
0.0
  0
LINE
  5
49F
100
AcDbEntity
  8
2
  6
Continuous
 62
               4
100
AcDbLine
 10
1265.1690672734148
 20
324.27959349419461
 30
0.0
 11
1265.1690672734148
 21
343.27959349419461
 31
0.0
  0
LINE
  5
4A0
100
AcDbEntity
  8
2
  6
Continuous
 62
               4
100
AcDbLine
 10
1263.1690672734148
 20
381.27959349419461
 30
0.0
 11
1328.1690672734157
 21
381.27959349419461
 31
0.0
  0
LINE
  5
4A1
100
AcDbEntity
  8
2
  6
Continuous
 62
               4
100
AcDbLine
 10
1265.1690672734148
 20
343.27959349419461
 30
0.0
 11
1265.1690672734148
 21
381.27959349419461
 31
0.0
  0
LINE
  5
4A2
100
AcDbEntity
  8
2
  6
Continuous
 62
               2
100
AcDbLine
 10
1505.6690672734157
 20
220.2795934941945
 30
0.0
 11
1305.6690672734157
 21
220.2795934941945
 31
0.0
  0
LINE
  5
4A3
100
AcDbEntity
  8
2
  6
Continuous
 62
               2
100
AcDbLine
 10
1505.6690672734157
 20
200.27959349419461
 30
0.0
 11
1305.6690672734157
 21
200.27959349419461
 31
0.0
  0
LINE
  5
4A4
100
AcDbEntity
  8
2
  6
Continuous
 62
               2
100
AcDbLine
 10
1505.6690672734157
 20
220.2795934941945
 30
0.0
 11
1505.6690672734157
 21
200.27959349419461
 31
0.0
  0
LINE
  5
4A5
100
AcDbEntity
  8
2
  6
Continuous
 62
               2
100
AcDbLine
 10
1305.6690672734157
 20
220.2795934941945
 30
0.0
 11
1305.6690672734157
 21
200.27959349419461
 31
0.0
  0
LINE
  5
4A6
100
AcDbEntity
  8
2
  6
DASHDOT
 62
               4
100
AcDbLine
 10
1293.1690672734157
 20
260.2795934941945
 30
0.0
 11
1293.1690672734157
 21
343.27959349419461
 31
0.0
  0
LINE
  5
4A7
100
AcDbEntity
  8
2
  6
Continuous
 62
               4
100
AcDbLine
 10
1223.1690672734148
 20
262.2795934941945
 30
0.0
 11
1293.1690672734157
 21
262.2795934941945
 31
0.0
  0
LINE
  5
4A8
100
AcDbEntity
  8
2
  6
DASHDOT
 62
               4
100
AcDbLine
 10
1518.1690672734148
 20
260.2795934941945
 30
0.0
 11
1518.1690672734148
 21
343.27959349419461
 31
0.0
  0
LINE
  5
4A9
100
AcDbEntity
  8
2
  6
Continuous
 62
               4
100
AcDbLine
 10
1293.1690672734157
 20
262.2795934941945
 30
0.0
 11
1518.1690672734148
 21
262.2795934941945
 31
0.0
  0
LINE
  5
4AA
100
AcDbEntity
  8
2
  6
Continuous
 62
               4
100
AcDbLine
 10
1518.1690672734148
 20
262.2795934941945
 30
0.0
 11
1588.1690672734157
 21
262.2795934941945
 31
0.0
  0
LINE
  5
4AB
100
AcDbEntity
  8
2
  6
Continuous
 62
               4
100
AcDbLine
 10
1223.1690672734148
 20
262.2795934941945
 30
0.0
 11
1231.1690672734148
 21
264.42318703364356
 31
0.0
  0
LINE
  5
4AC
100
AcDbEntity
  8
2
  6
Continuous
 62
               4
100
AcDbLine
 10
1233.1690672734157
 20
258.27959349419461
 30
0.0
 11
1231.1690672734148
 21
264.42318703364356
 31
0.0
  0
LINE
  5
4AD
100
AcDbEntity
  8
2
  6
Continuous
 62
               6
100
AcDbLine
 10
1415.6690672734148
 20
324.27959349419461
 30
0.0
 11
1605.6690672734157
 21
324.2795934941945
 31
0.0
  0
LINE
  5
4AE
100
AcDbEntity
  8
2
  6
Continuous
 62
               6
100
AcDbLine
 10
1415.6690672734148
 20
343.27959349419461
 30
0.0
 11
1605.6690672734157
 21
343.27959349419461
 31
0.0
  0
LINE
  5
4AF
100
AcDbEntity
  8
2
  6
DASHED
 62
               6
100
AcDbLine
 10
1415.6690672734148
 20
325.07959349419457
 30
0.0
 11
1605.6690672734157
 21
325.07959349419457
 31
0.0
  0
LINE
  5
4B0
100
AcDbEntity
  8
2
  6
DASHED
 62
               6
100
AcDbLine
 10
1415.6690672734148
 20
342.47959349419466
 30
0.0
 11
1605.6690672734157
 21
342.47959349419466
 31
0.0
  0
LINE
  5
4B1
100
AcDbEntity
  8
2
  6
Continuous
 62
               3
100
AcDbLine
 10
1205.6690672734157
 20
309.27959349419461
 30
0.0
 11
1278.1690672734157
 21
309.27959349419461
 31
0.0
  0
LINE
  5
4B2
100
AcDbEntity
  8
2
  6
Continuous
 62
               3
100
AcDbLine
 10
1503.1690672734157
 20
309.27959349419461
 30
0.0
 11
1503.1690672734157
 21
324.2795934941945
 31
0.0
  0
LINE
  5
4B3
100
AcDbEntity
  8
2
  6
Continuous
 62
               3
100
AcDbLine
 10
1533.1690672734157
 20
309.27959349419461
 30
0.0
 11
1533.1690672734157
 21
324.2795934941945
 31
0.0
  0
LINE
  5
4B4
100
AcDbEntity
  8
2
  6
Continuous
 62
               3
100
AcDbLine
 10
1278.1690672734157
 20
309.27959349419461
 30
0.0
 11
1278.1690672734157
 21
324.2795934941945
 31
0.0
  0
LINE
  5
4B5
100
AcDbEntity
  8
2
  6
Continuous
 62
               3
100
AcDbLine
 10
1308.1690672734157
 20
309.27959349419461
 30
0.0
 11
1308.1690672734157
 21
324.2795934941945
 31
0.0
  0
LINE
  5
4B6
100
AcDbEntity
  8
2
  6
Continuous
 62
               3
100
AcDbLine
 10
1308.1690672734157
 20
309.27959349419461
 30
0.0
 11
1395.6690672734157
 21
309.27959349419461
 31
0.0
  0
LINE
  5
4B7
100
AcDbEntity
  8
2
  6
Continuous
 62
               3
100
AcDbLine
 10
1533.1690672734157
 20
309.27959349419461
 30
0.0
 11
1605.6690672734157
 21
309.27959349419461
 31
0.0
  0
LINE
  5
4B8
100
AcDbEntity
  8
2
  6
Continuous
 62
               3
100
AcDbLine
 10
1533.1690672734157
 20
324.2795934941945
 30
0.0
 11
1605.6690672734157
 21
324.27959349419439
 31
0.0
  0
LINE
  5
4B9
100
AcDbEntity
  8
2
  6
Continuous
 62
               3
100
AcDbLine
 10
1308.1690672734157
 20
324.2795934941945
 30
0.0
 11
1395.6690672734157
 21
324.2795934941945
 31
0.0
  0
LINE
  5
4BA
100
AcDbEntity
  8
2
  6
Continuous
 62
               3
100
AcDbLine
 10
1205.6690672734157
 20
324.2795934941945
 30
0.0
 11
1278.1690672734157
 21
324.2795934941945
 31
0.0
  0
LINE
  5
4BB
100
AcDbEntity
  8
2
  6
Continuous
 62
               2
100
AcDbLine
 10
1205.6690672734157
 20
307.27959349419461
 30
0.0
 11
1283.1690672734157
 21
307.27959349419461
 31
0.0
  0
LINE
  5
4BC
100
AcDbEntity
  8
2
  6
Continuous
 62
               2
100
AcDbLine
 10
1303.1690672734148
 20
307.27959349419461
 30
0.0
 11
1395.6690672734157
 21
307.27959349419461
 31
0.0
  0
LINE
  5
4BD
100
AcDbEntity
  8
2
  6
Continuous
 62
               2
100
AcDbLine
 10
1508.1690672734157
 20
307.27959349419461
 30
0.0
 11
1508.1690672734157
 21
321.2795934941945
 31
0.0
  0
LINE
  5
4BE
100
AcDbEntity
  8
2
  6
Continuous
 62
               2
100
AcDbLine
 10
1528.1690672734157
 20
307.27959349419461
 30
0.0
 11
1528.1690672734157
 21
322.7795934941945
 31
0.0
  0
LINE
  5
4BF
100
AcDbEntity
  8
2
  6
Continuous
 62
               2
100
AcDbLine
 10
1528.1690672734157
 20
307.27959349419461
 30
0.0
 11
1605.6690672734157
 21
307.27959349419461
 31
0.0
  0
LINE
  5
4C0
100
AcDbEntity
  8
2
  6
Continuous
 62
               2
100
AcDbLine
 10
1508.1690672734157
 20
322.7795934941945
 30
0.0
 11
1528.1690672734157
 21
322.7795934941945
 31
0.0
  0
LINE
  5
4C1
100
AcDbEntity
  8
2
  6
Continuous
 62
               2
100
AcDbLine
 10
1508.1690672734157
 20
321.2795934941945
 30
0.0
 11
1526.1690672734157
 21
321.2795934941945
 31
0.0
  0
LINE
  5
4C2
100
AcDbEntity
  8
2
  6
Continuous
 62
               2
100
AcDbLine
 10
1283.1690672734157
 20
307.27959349419461
 30
0.0
 11
1283.1690672734157
 21
321.2795934941945
 31
0.0
  0
LINE
  5
4C3
100
AcDbEntity
  8
2
  6
Continuous
 62
               2
100
AcDbLine
 10
1303.1690672734148
 20
307.27959349419461
 30
0.0
 11
1303.1690672734148
 21
322.7795934941945
 31
0.0
  0
LINE
  5
4C4
100
AcDbEntity
  8
2
  6
Continuous
 62
               2
100
AcDbLine
 10
1283.1690672734157
 20
322.7795934941945
 30
0.0
 11
1303.1690672734148
 21
322.7795934941945
 31
0.0
  0
LINE
  5
4C5
100
AcDbEntity
  8
2
  6
Continuous
 62
               2
100
AcDbLine
 10
1283.1690672734157
 20
321.2795934941945
 30
0.0
 11
1301.1690672734157
 21
321.2795934941945
 31
0.0
  0
LINE
  5
4C6
100
AcDbEntity
  8
2
  6
Continuous
 62
               4
100
AcDbLine
 10
1265.1690672734148
 20
324.2795934941945
 30
0.0
 11
1265.1690672734148
 21
309.27959349419461
 31
0.0
  0
LINE
  5
4C7
100
AcDbEntity
  8
2
  6
Continuous
 62
               7
100
AcDbLine
 10
1308.1690672734157
 20
313.27959349419461
 30
0.0
 11
1395.6690672734157
 21
313.27959349419461
 31
0.0
  0
LINE
  5
4C8
100
AcDbEntity
  8
2
  6
Continuous
 62
               7
100
AcDbLine
 10
1308.1690672734157
 20
317.27959349419461
 30
0.0
 11
1395.6690672734157
 21
317.27959349419461
 31
0.0
  0
LINE
  5
4C9
100
AcDbEntity
  8
2
  6
Continuous
 62
               7
100
AcDbLine
 10
1308.1690672734157
 20
321.27959349419461
 30
0.0
 11
1395.6690672734157
 21
321.27959349419461
 31
0.0
  0
LINE
  5
4CA
100
AcDbEntity
  8
2
  6
Continuous
 62
               7
100
AcDbLine
 10
1533.1690672734157
 20
313.27959349419461
 30
0.0
 11
1573.3596661966576
 21
313.27959349419461
 31
0.0
  0
LINE
  5
4CB
100
AcDbEntity
  8
2
  6
Continuous
 62
               7
100
AcDbLine
 10
1533.1690672734157
 20
317.27959349419461
 30
0.0
 11
1575.6690672734148
 21
317.2795934941945
 31
0.0
  0
LINE
  5
4CC
100
AcDbEntity
  8
2
  6
Continuous
 62
               7
100
AcDbLine
 10
1533.1690672734157
 20
321.27959349419461
 30
0.0
 11
1577.9784683501748
 21
321.2795934941945
 31
0.0
  0
LINE
  5
4CD
100
AcDbEntity
  8
2
  6
Continuous
 62
               4
100
AcDbLine
 10
1283.1690672734157
 20
274.2795934941945
 30
0.0
 11
1283.1690672734157
 21
303.27959349419461
 31
0.0
  0
LINE
  5
4CE
100
AcDbEntity
  8
2
  6
Continuous
 62
               4
100
AcDbLine
 10
1303.1690672734148
 20
274.2795934941945
 30
0.0
 11
1303.1690672734148
 21
303.27959349419461
 31
0.0
  0
LINE
  5
4CF
100
AcDbEntity
  8
2
  6
Continuous
 62
               4
100
AcDbLine
 10
1283.1690672734157
 20
276.2795934941945
 30
0.0
 11
1303.1690672734148
 21
276.2795934941945
 31
0.0
  0
LINE
  5
4D0
100
AcDbEntity
  8
2
  6
Continuous
 62
               4
100
AcDbLine
 10
1508.1690672734157
 20
274.2795934941945
 30
0.0
 11
1508.1690672734157
 21
303.27959349419461
 31
0.0
  0
LINE
  5
4D1
100
AcDbEntity
  8
2
  6
Continuous
 62
               4
100
AcDbLine
 10
1528.1690672734157
 20
274.2795934941945
 30
0.0
 11
1528.1690672734157
 21
303.27959349419461
 31
0.0
  0
LINE
  5
4D2
100
AcDbEntity
  8
2
  6
Continuous
 62
               4
100
AcDbLine
 10
1508.1690672734157
 20
276.2795934941945
 30
0.0
 11
1528.1690672734157
 21
276.2795934941945
 31
0.0
  0
LINE
  5
4D3
100
AcDbEntity
  8
2
  6
Continuous
 62
               3
100
AcDbLine
 10
1415.6690672734148
 20
309.27959349419461
 30
0.0
 11
1503.1690672734157
 21
309.27959349419461
 31
0.0
  0
LINE
  5
4D4
100
AcDbEntity
  8
2
  6
Continuous
 62
               3
100
AcDbLine
 10
1415.6690672734148
 20
324.2795934941945
 30
0.0
 11
1503.1690672734157
 21
324.2795934941945
 31
0.0
  0
LINE
  5
4D5
100
AcDbEntity
  8
2
  6
Continuous
 62
               2
100
AcDbLine
 10
1415.6690672734148
 20
307.27959349419461
 30
0.0
 11
1508.1690672734157
 21
307.27959349419461
 31
0.0
  0
LINE
  5
4D6
100
AcDbEntity
  8
2
  6
Continuous
 62
               7
100
AcDbLine
 10
1415.6690672734148
 20
313.27959349419461
 30
0.0
 11
1503.1690672734157
 21
313.27959349419461
 31
0.0
  0
LINE
  5
4D7
100
AcDbEntity
  8
2
  6
Continuous
 62
               7
100
AcDbLine
 10
1415.6690672734148
 20
317.27959349419461
 30
0.0
 11
1503.1690672734157
 21
317.27959349419461
 31
0.0
  0
LINE
  5
4D8
100
AcDbEntity
  8
2
  6
Continuous
 62
               7
100
AcDbLine
 10
1415.6690672734148
 20
321.27959349419461
 30
0.0
 11
1503.1690672734157
 21
321.27959349419461
 31
0.0
  0
LINE
  5
4D9
100
AcDbEntity
  8
2
  6
DASHDOT
 62
               4
100
AcDbLine
 10
1293.1690672734157
 20
339.2795934941945
 30
0.0
 11
1293.1690672734157
 21
316.2795934941945
 31
0.0
  0
LINE
  5
4DA
100
AcDbEntity
  8
2
  6
Continuous
 62
               7
100
AcDbLine
 10
1290.6690672734157
 20
335.7795934941945
 30
0.0
 11
1290.6690672734157
 21
321.2795934941945
 31
0.0
  0
LINE
  5
4DB
100
AcDbEntity
  8
2
  6
Continuous
 62
               7
100
AcDbLine
 10
1288.1690672734157
 20
321.2795934941945
 30
0.0
 11
1288.1690672734157
 21
320.2795934941945
 31
0.0
  0
LINE
  5
4DC
100
AcDbEntity
  8
2
  6
Continuous
 62
               7
100
AcDbLine
 10
1295.6690672734157
 20
335.7795934941945
 30
0.0
 11
1295.6690672734157
 21
321.2795934941945
 31
0.0
  0
LINE
  5
4DD
100
AcDbEntity
  8
2
  6
Continuous
 62
               7
100
AcDbLine
 10
1298.1690672734157
 20
321.2795934941945
 30
0.0
 11
1298.1690672734157
 21
320.2795934941945
 31
0.0
  0
LINE
  5
4DE
100
AcDbEntity
  8
2
  6
Continuous
 62
               7
100
AcDbLine
 10
1288.1690672734157
 20
321.2795934941945
 30
0.0
 11
1298.1690672734157
 21
321.2795934941945
 31
0.0
  0
LINE
  5
4DF
100
AcDbEntity
  8
2
  6
Continuous
 62
               7
100
AcDbLine
 10
1290.6690672734157
 20
335.7795934941945
 30
0.0
 11
1293.1690672734157
 21
337.2795934941945
 31
0.0
  0
LINE
  5
4E0
100
AcDbEntity
  8
2
  6
Continuous
 62
               7
100
AcDbLine
 10
1295.6690672734157
 20
335.7795934941945
 30
0.0
 11
1293.1690672734157
 21
337.2795934941945
 31
0.0
  0
LINE
  5
4E1
100
AcDbEntity
  8
2
  6
Continuous
 62
               7
100
AcDbLine
 10
1290.6690672734157
 20
324.2795934941945
 30
0.0
 11
1295.6690672734157
 21
326.2795934941945
 31
0.0
  0
LINE
  5
4E2
100
AcDbEntity
  8
2
  6
Continuous
 62
               7
100
AcDbLine
 10
1290.6690672734157
 20
326.2795934941945
 30
0.0
 11
1295.6690672734157
 21
328.2795934941945
 31
0.0
  0
LINE
  5
4E3
100
AcDbEntity
  8
2
  6
Continuous
 62
               7
100
AcDbLine
 10
1290.6690672734157
 20
328.2795934941945
 30
0.0
 11
1295.6690672734157
 21
330.2795934941945
 31
0.0
  0
LINE
  5
4E4
100
AcDbEntity
  8
2
  6
Continuous
 62
               7
100
AcDbLine
 10
1295.6690672734157
 20
332.2795934941945
 30
0.0
 11
1290.6690672734157
 21
330.2795934941945
 31
0.0
  0
LINE
  5
4E5
100
AcDbEntity
  8
2
  6
Continuous
 62
               7
100
AcDbLine
 10
1295.6690672734157
 20
334.2795934941945
 30
0.0
 11
1292.6690672734157
 21
333.07959349419457
 31
0.0
  0
LINE
  5
4E6
100
AcDbEntity
  8
2
  6
Continuous
 62
               7
100
AcDbLine
 10
1291.1690672734157
 20
335.2795934941945
 30
0.0
 11
1291.1690672734157
 21
332.47959349419443
 31
0.0
  0
LINE
  5
4E7
100
AcDbEntity
  8
2
  6
Continuous
 62
               7
100
AcDbLine
 10
1292.6690672734157
 20
335.97959349419443
 30
0.0
 11
1292.6690672734157
 21
333.07959349419457
 31
0.0
  0
LINE
  5
4E8
100
AcDbEntity
  8
2
  6
Continuous
 62
               7
100
AcDbLine
 10
1290.6690672734157
 20
335.7795934941945
 30
0.0
 11
1291.1690672734157
 21
335.2795934941945
 31
0.0
  0
LINE
  5
4E9
100
AcDbEntity
  8
2
  6
Continuous
 62
               7
100
AcDbLine
 10
1292.6690672734157
 20
333.07959349419457
 30
0.0
 11
1291.6190672734156
 21
332.0295934941945
 31
0.0
  0
LINE
  5
4EA
100
AcDbEntity
  8
2
  6
Continuous
 62
               7
100
AcDbLine
 10
1291.1690672734157
 20
332.47959349419443
 30
0.0
 11
1291.6190672734156
 21
332.0295934941945
 31
0.0
  0
LINE
  5
4EB
100
AcDbEntity
  8
2
  6
Continuous
 62
               7
100
AcDbLine
 10
1291.1690672734157
 20
332.47959349419443
 30
0.0
 11
1290.6690672734157
 21
332.2795934941945
 31
0.0
  0
LINE
  5
4EC
100
AcDbEntity
  8
2
  6
DOT
 62
               7
100
AcDbLine
 10
1291.6690672734157
 20
318.43646301463889
 30
0.0
 11
1293.1690672734157
 21
321.2795934941945
 31
0.0
  0
LINE
  5
4ED
100
AcDbEntity
  8
2
  6
DOT
 62
               7
100
AcDbLine
 10
1293.1690672734157
 20
321.2795934941945
 30
0.0
 11
1294.6690672734157
 21
318.43646301463889
 31
0.0
  0
LINE
  5
4EE
100
AcDbEntity
  8
2
  6
DASHDOT
 62
               4
100
AcDbLine
 10
1518.1690672734148
 20
339.2795934941945
 30
0.0
 11
1518.1690672734148
 21
316.2795934941945
 31
0.0
  0
LINE
  5
4EF
100
AcDbEntity
  8
2
  6
Continuous
 62
               7
100
AcDbLine
 10
1515.6690672734157
 20
335.7795934941945
 30
0.0
 11
1515.6690672734157
 21
321.2795934941945
 31
0.0
  0
LINE
  5
4F0
100
AcDbEntity
  8
2
  6
Continuous
 62
               7
100
AcDbLine
 10
1513.1690672734148
 20
321.2795934941945
 30
0.0
 11
1513.1690672734148
 21
320.2795934941945
 31
0.0
  0
LINE
  5
4F1
100
AcDbEntity
  8
2
  6
Continuous
 62
               7
100
AcDbLine
 10
1520.6690672734157
 20
335.7795934941945
 30
0.0
 11
1520.6690672734157
 21
321.2795934941945
 31
0.0
  0
LINE
  5
4F2
100
AcDbEntity
  8
2
  6
Continuous
 62
               7
100
AcDbLine
 10
1523.1690672734148
 20
321.2795934941945
 30
0.0
 11
1523.1690672734148
 21
320.2795934941945
 31
0.0
  0
LINE
  5
4F3
100
AcDbEntity
  8
2
  6
Continuous
 62
               7
100
AcDbLine
 10
1513.1690672734148
 20
321.2795934941945
 30
0.0
 11
1523.1690672734148
 21
321.2795934941945
 31
0.0
  0
LINE
  5
4F4
100
AcDbEntity
  8
2
  6
Continuous
 62
               7
100
AcDbLine
 10
1515.6690672734157
 20
335.7795934941945
 30
0.0
 11
1518.1690672734148
 21
337.2795934941945
 31
0.0
  0
LINE
  5
4F5
100
AcDbEntity
  8
2
  6
Continuous
 62
               7
100
AcDbLine
 10
1520.6690672734157
 20
335.7795934941945
 30
0.0
 11
1518.1690672734148
 21
337.2795934941945
 31
0.0
  0
LINE
  5
4F6
100
AcDbEntity
  8
2
  6
Continuous
 62
               7
100
AcDbLine
 10
1515.6690672734157
 20
324.2795934941945
 30
0.0
 11
1520.6690672734157
 21
326.2795934941945
 31
0.0
  0
LINE
  5
4F7
100
AcDbEntity
  8
2
  6
Continuous
 62
               7
100
AcDbLine
 10
1515.6690672734157
 20
326.2795934941945
 30
0.0
 11
1520.6690672734157
 21
328.2795934941945
 31
0.0
  0
LINE
  5
4F8
100
AcDbEntity
  8
2
  6
Continuous
 62
               7
100
AcDbLine
 10
1515.6690672734157
 20
328.2795934941945
 30
0.0
 11
1520.6690672734157
 21
330.2795934941945
 31
0.0
  0
LINE
  5
4F9
100
AcDbEntity
  8
2
  6
Continuous
 62
               7
100
AcDbLine
 10
1520.6690672734157
 20
332.2795934941945
 30
0.0
 11
1515.6690672734157
 21
330.2795934941945
 31
0.0
  0
LINE
  5
4FA
100
AcDbEntity
  8
2
  6
Continuous
 62
               7
100
AcDbLine
 10
1520.6690672734157
 20
334.2795934941945
 30
0.0
 11
1517.6690672734157
 21
333.07959349419457
 31
0.0
  0
LINE
  5
4FB
100
AcDbEntity
  8
2
  6
Continuous
 62
               7
100
AcDbLine
 10
1516.1690672734157
 20
335.2795934941945
 30
0.0
 11
1516.1690672734157
 21
332.47959349419443
 31
0.0
  0
LINE
  5
4FC
100
AcDbEntity
  8
2
  6
Continuous
 62
               7
100
AcDbLine
 10
1517.6690672734157
 20
335.97959349419443
 30
0.0
 11
1517.6690672734157
 21
333.07959349419457
 31
0.0
  0
LINE
  5
4FD
100
AcDbEntity
  8
2
  6
Continuous
 62
               7
100
AcDbLine
 10
1515.6690672734157
 20
335.7795934941945
 30
0.0
 11
1516.1690672734157
 21
335.2795934941945
 31
0.0
  0
LINE
  5
4FE
100
AcDbEntity
  8
2
  6
Continuous
 62
               7
100
AcDbLine
 10
1517.6690672734157
 20
333.07959349419457
 30
0.0
 11
1516.6190672734156
 21
332.0295934941945
 31
0.0
  0
LINE
  5
4FF
100
AcDbEntity
  8
2
  6
Continuous
 62
               7
100
AcDbLine
 10
1516.1690672734157
 20
332.47959349419443
 30
0.0
 11
1516.6190672734156
 21
332.0295934941945
 31
0.0
  0
LINE
  5
500
100
AcDbEntity
  8
2
  6
Continuous
 62
               7
100
AcDbLine
 10
1516.1690672734157
 20
332.47959349419443
 30
0.0
 11
1515.6690672734157
 21
332.2795934941945
 31
0.0
  0
LINE
  5
501
100
AcDbEntity
  8
2
  6
DOT
 62
               7
100
AcDbLine
 10
1516.6690672734148
 20
318.43646301463889
 30
0.0
 11
1518.1690672734148
 21
321.2795934941945
 31
0.0
  0
LINE
  5
502
100
AcDbEntity
  8
2
  6
DOT
 62
               7
100
AcDbLine
 10
1518.1690672734148
 20
321.2795934941945
 30
0.0
 11
1519.6690672734148
 21
318.43646301463889
 31
0.0
  0
CIRCLE
  5
503
100
AcDbEntity
  8
2
  6
Continuous
 62
               4
100
AcDbCircle
 10
1265.1690672734148
 20
324.27959349419461
 30
0.0
 40
1.0
  0
CIRCLE
  5
504
100
AcDbEntity
  8
2
  6
Continuous
 62
               4
100
AcDbCircle
 10
1265.1690672734148
 20
343.27959349419461
 30
0.0
 40
1.0
  0
CIRCLE
  5
505
100
AcDbEntity
  8
2
  6
Continuous
 62
               4
100
AcDbCircle
 10
1265.1690672734148
 20
343.27959349419461
 30
0.0
 40
1.0
  0
CIRCLE
  5
506
100
AcDbEntity
  8
2
  6
Continuous
 62
               4
100
AcDbCircle
 10
1265.1690672734148
 20
381.27959349419461
 30
0.0
 40
1.0
  0
CIRCLE
  5
507
100
AcDbEntity
  8
2
  6
Continuous
 62
               4
100
AcDbCircle
 10
1293.1690672734157
 20
262.2795934941945
 30
0.0
 40
1.0
  0
CIRCLE
  5
508
100
AcDbEntity
  8
2
  6
Continuous
 62
               4
100
AcDbCircle
 10
1293.1690672734157
 20
262.2795934941945
 30
0.0
 40
1.0
  0
CIRCLE
  5
509
100
AcDbEntity
  8
2
  6
Continuous
 62
               4
100
AcDbCircle
 10
1518.1690672734148
 20
262.2795934941945
 30
0.0
 40
1.0
  0
CIRCLE
  5
50A
100
AcDbEntity
  8
2
  6
Continuous
 62
               4
100
AcDbCircle
 10
1518.1690672734148
 20
262.2795934941945
 30
0.0
 40
1.0
  0
CIRCLE
  5
50B
100
AcDbEntity
  8
2
  6
Continuous
 62
               4
100
AcDbCircle
 10
1265.1690672734148
 20
324.2795934941945
 30
0.0
 40
1.0
  0
CIRCLE
  5
50C
100
AcDbEntity
  8
2
  6
Continuous
 62
               4
100
AcDbCircle
 10
1265.1690672734148
 20
309.27959349419461
 30
0.0
 40
1.0
  0
CIRCLE
  5
50D
100
AcDbEntity
  8
2
  6
Continuous
 62
               4
100
AcDbCircle
 10
1283.1690672734157
 20
276.2795934941945
 30
0.0
 40
1.0
  0
CIRCLE
  5
50E
100
AcDbEntity
  8
2
  6
Continuous
 62
               4
100
AcDbCircle
 10
1303.1690672734148
 20
276.2795934941945
 30
0.0
 40
1.0
  0
CIRCLE
  5
50F
100
AcDbEntity
  8
2
  6
Continuous
 62
               4
100
AcDbCircle
 10
1508.1690672734157
 20
276.2795934941945
 30
0.0
 40
1.0
  0
CIRCLE
  5
510
100
AcDbEntity
  8
2
  6
Continuous
 62
               4
100
AcDbCircle
 10
1528.1690672734157
 20
276.2795934941945
 30
0.0
 40
1.0
  0
ARC
  5
511
100
AcDbEntity
  8
2
  6
Continuous
 62
               7
100
AcDbCircle
 10
1293.1690672734157
 20
325.5295934941945
 30
0.0
 40
7.25
100
AcDbArc
 50
226.39718102729637
 51
313.60281897270357
  0
ARC
  5
512
100
AcDbEntity
  8
2
  6
Continuous
 62
               7
100
AcDbCircle
 10
1293.6690672734148
 20
335.97959349419443
 30
0.0
 40
1.0
100
AcDbArc
 50
90.000000000000071
 51
180.0
  0
ARC
  5
513
100
AcDbEntity
  8
2
  6
Continuous
 62
               7
100
AcDbCircle
 10
1518.1690672734148
 20
325.5295934941945
 30
0.0
 40
7.25
100
AcDbArc
 50
226.39718102729637
 51
313.60281897270357
  0
ARC
  5
514
100
AcDbEntity
  8
2
  6
Continuous
 62
               7
100
AcDbCircle
 10
1518.6690672734148
 20
335.97959349419443
 30
0.0
 40
1.0
100
AcDbArc
 50
90.000000000000071
 51
180.0
  0
TEXT
  5
515
100
AcDbEntity
  8
2
 62
               7
100
AcDbText
 10
1492.2359985495468
 20
358.28015539055195
 30
0.0
 40
8.0
  1
野縁（別途工事）
 41
0.7695
  7
FontTableH_0
 72
               5
 11
1556.2359985495468
 21
358.28015539055195
 31
0.0
100
AcDbText
  0
TEXT
  5
516
100
AcDbEntity
  8
2
 62
               7
100
AcDbText
 10
1364.7258665495456
 20
372.28015539055195
 30
0.0
 40
8.0
  1
野縁受ケ（別途工事）
 41
0.7695
  7
FontTableH_0
 72
               5
 11
1444.7258665495456
 21
372.28015539055195
 31
0.0
100
AcDbText
  0
TEXT
  5
517
100
AcDbEntity
  8
2
 62
               7
100
AcDbText
 10
1264.1672735495467
 20
329.77960539055198
 30
0.0
 40
7.9999999999999716
  1
19
 50
89.999981276033665
 41
0.7695
  7
FontTableH_0
 72
               5
 11
1264.1672755103159
 21
335.77960539055164
 31
0.0
100
AcDbText
  0
TEXT
  5
518
100
AcDbEntity
  8
2
 62
               7
100
AcDbText
 10
1264.1672735495467
 20
358.27960539055198
 30
0.0
 40
7.9999999999999716
  1
38
 50
89.999981276033665
 41
0.7695
  7
FontTableH_0
 72
               5
 11
1264.1672755103159
 21
364.27960539055164
 31
0.0
100
AcDbText
  0
TEXT
  5
519
100
AcDbEntity
  8
2
 62
               7
100
AcDbText
 10
1330.6676395495456
 20
204.27974339055197
 30
0.0
 40
12.0
  1
A-A 軒天断面図  ［S=1/2］
 41
0.7695
  7
FontTableH_0
 72
               5
 11
1466.6630047321041
 21
204.27974339055197
 31
0.0
100
AcDbText
  0
TEXT
  5
51A
100
AcDbEntity
  8
2
 62
               7
100
AcDbText
 10
1375.6691045495468
 20
263.27965139055198
 30
0.0
 40
8.0
  1
＠675(＠225×3)
 41
0.7695
  7
FontTableH_0
 72
               5
 11
1427.2316045495468
 21
263.27965139055198
 31
0.0
100
AcDbText
  0
TEXT
  5
51B
100
AcDbEntity
  8
2
 62
               7
100
AcDbText
 10
1543.1691045495459
 20
263.27965139055198
 30
0.0
 40
8.0
  1
＠675
 41
0.7695
  7
FontTableH_0
 72
               5
 11
1560.3566045495459
 21
263.27965139055198
 31
0.0
100
AcDbText
  0
TEXT
  5
51C
100
AcDbEntity
  8
2
 62
               7
100
AcDbText
 10
1248.1688605495469
 20
263.27965139055198
 30
0.0
 40
8.0
  1
＠675
 41
0.7695
  7
FontTableH_0
 72
               5
 11
1265.3563605495469
 21
263.27965139055198
 31
0.0
100
AcDbText
  0
TEXT
  5
51D
100
AcDbEntity
  8
2
 62
               7
100
AcDbText
 10
1264.1691045495468
 20
312.77962139055194
 30
0.0
 40
7.9999999999999716
  1
15
 50
89.999981276033665
 41
0.7695
  7
FontTableH_0
 72
               5
 11
1264.1691065103159
 21
318.7796213905516
 31
0.0
100
AcDbText
  0
TEXT
  5
51E
100
AcDbEntity
  8
2
 62
               7
100
AcDbText
 10
1289.1691045495468
 20
277.27962139055194
 30
0.0
 40
8.0
  1
20
 41
0.7695
  7
FontTableH_0
 72
               5
 11
1295.1691045495468
 21
277.27962139055194
 31
0.0
100
AcDbText
  0
TEXT
  5
51F
100
AcDbEntity
  8
2
 62
               7
100
AcDbText
 10
1514.1691045495468
 20
277.27962139055194
 30
0.0
 40
8.0
  1
20
 41
0.7695
  7
FontTableH_0
 72
               5
 11
1520.1691045495468
 21
277.27962139055194
 31
0.0
100
AcDbText
  0
TEXT
  5
520
100
AcDbEntity
  8
14
 62
               7
100
AcDbText
 10
475.78632254954675
 20
79.469928390552013
 30
0.0
 40
6.0
  1
下ガリ壁部詳細図(2)
 41
0.7695
  7
FontTableH_0
 72
               5
 11
531.72640589613036
 21
79.469928390552013
 31
0.0
100
AcDbText
  0
TEXT
  5
521
100
AcDbEntity
  8
14
 62
               7
100
AcDbText
 10
587.99808354954678
 20
77.469917390551984
 30
0.0
 40
5.0
  1
1/2
 41
0.7695
  7
FontTableH_0
 72
               5
 11
593.62308354954678
 21
77.469917390551984
 31
0.0
100
AcDbText
  0
ENDSEC
  0
SECTION
  2
OBJECTS
  0
DICTIONARY
  5
19
100
AcDbDictionary
  3
ACAD_GROUP
350
1A
  3
ACAD_MLINESTYLE
350
1B
  3
DWGPROPS
350
522
  0
DICTIONARY
  5
1A
102
{ACAD_REACTORS
330
19
102
}
100
AcDbDictionary
  0
DICTIONARY
  5
1B
102
{ACAD_REACTORS
330
19
102
}
100
AcDbDictionary
  3
STANDARD
350
1C
  0
MLINESTYLE
  5
1C
102
{ACAD_REACTORS
330
1B
102
}
100
AcDbMlineStyle
  2
Standard
 70
               0
  3

 62
               0
 51
90.0
 52
90.0
 71
               2
 49
0.5
 62
             256
  6
ByLayer
 49
-0.5
 62
             256
  6
ByLayer
  0
XRECORD
  5
522
100
AcDbXrecord
  1
DWGPROPS COOKIE
  2

  3

  4

  6

  7

  0
ENDSEC
  0
EOF
