  0
SECTION
  2
HEADER
  9
$ACADVER
  1
AC1014
  9
$ACADMAINTVER
 70
               0
  9
$DWGCODEPAGE
  3
ANSI_932
  9
$INSBASE
 10
0.0
 20
0.0
 30
0.0
  9
$EXTMIN
 10
0.0
 20
0.0
 30
0.0
  9
$EXTMAX
 10
1682.0
 20
1188.0
 30
0.0
  9
$LIMMIN
 10
0.0
 20
0.0
  9
$LIMMAX
 10
1682.0
 20
1188.0
  9
$ORTHOMODE
 70
               0
  9
$REGENMODE
 70
               1
  9
$FILLMODE
 70
               1
  9
$QTEXTMODE
 70
               0
  9
$MIRRTEXT
 70
               1
  9
$DRAGMODE
 70
               2
  9
$LTSCALE
 40
2.0
  9
$OSMODE
 70
               0
  9
$ATTMODE
 70
               1
  9
$TEXTSIZE
 40
0.2
  9
$TRACEWID
 40
0.05
  9
$TEXTSTYLE
  7
Standard
  9
$CLAYER
  8
0
  9
$CELTYPE
  6
Continuous
  9
$CECOLOR
 62
             256
  9
$CELTSCALE
 40
1.0
  9
$DELOBJ
 70
               1
  9
$DISPSILH
 70
               0
  9
$DIMSCALE
 40
1.0
  9
$DIMASZ
 40
0.18
  9
$DIMEXO
 40
0.0625
  9
$DIMDLI
 40
0.38
  9
$DIMRND
 40
0.0
  9
$DIMDLE
 40
0.0
  9
$DIMEXE
 40
0.18
  9
$DIMTP
 40
0.0
  9
$DIMTM
 40
0.0
  9
$DIMTXT
 40
0.18
  9
$DIMCEN
 40
0.09
  9
$DIMTSZ
 40
0.0
  9
$DIMTOL
 70
               0
  9
$DIMLIM
 70
               0
  9
$DIMTIH
 70
               1
  9
$DIMTOH
 70
               1
  9
$DIMSE1
 70
               0
  9
$DIMSE2
 70
               0
  9
$DIMTAD
 70
               0
  9
$DIMZIN
 70
               0
  9
$DIMBLK
  1

  9
$DIMASO
 70
               1
  9
$DIMSHO
 70
               1
  9
$DIMPOST
  1

  9
$DIMAPOST
  1

  9
$DIMALT
 70
               0
  9
$DIMALTD
 70
               2
  9
$DIMALTF
 40
25.399999999999999
  9
$DIMLFAC
 40
1.0
  9
$DIMTOFL
 70
               0
  9
$DIMTVP
 40
0.0
  9
$DIMTIX
 70
               0
  9
$DIMSOXD
 70
               0
  9
$DIMSAH
 70
               0
  9
$DIMBLK1
  1

  9
$DIMBLK2
  1

  9
$DIMSTYLE
  2
Standard
  9
$DIMCLRD
 70
               0
  9
$DIMCLRE
 70
               0
  9
$DIMCLRT
 70
               0
  9
$DIMTFAC
 40
1.0
  9
$DIMGAP
 40
0.09
  9
$DIMJUST
 70
               0
  9
$DIMSD1
 70
               0
  9
$DIMSD2
 70
               0
  9
$DIMTOLJ
 70
               1
  9
$DIMTZIN
 70
               0
  9
$DIMALTZ
 70
               0
  9
$DIMALTTZ
 70
               0
  9
$DIMFIT
 70
               3
  9
$DIMUPT
 70
               0
  9
$DIMUNIT
 70
               2
  9
$DIMDEC
 70
               4
  9
$DIMTDEC
 70
               4
  9
$DIMALTU
 70
               2
  9
$DIMALTTD
 70
               2
  9
$DIMTXSTY
  7
Standard
  9
$DIMAUNIT
 70
               0
  9
$LUNITS
 70
               2
  9
$LUPREC
 70
               4
  9
$SKETCHINC
 40
0.1
  9
$FILLETRAD
 40
0.0
  9
$AUNITS
 70
               0
  9
$AUPREC
 70
               0
  9
$MENU
  1
acad
  9
$ELEVATION
 40
0.0
  9
$PELEVATION
 40
0.0
  9
$THICKNESS
 40
0.0
  9
$LIMCHECK
 70
               0
  9
$BLIPMODE
 70
               1
  9
$CHAMFERA
 40
0.0
  9
$CHAMFERB
 40
0.0
  9
$CHAMFERC
 40
0.0
  9
$CHAMFERD
 40
0.0
  9
$SKPOLY
 70
               0
  9
$TDCREATE
 40
0.000000000
  9
$TDUPDATE
 40
0.000000000
  9
$TDINDWG
 40
0.0000000000
  9
$TDUSRTIMER
 40
0.0000000000
  9
$USRTIMER
 70
               1
  9
$ANGBASE
 50
0.0
  9
$ANGDIR
 70
               0
  9
$PDMODE
 70
               0
  9
$PDSIZE
 40
0.0
  9
$PLINEWID
 40
0.0
  9
$COORDS
 70
               0
  9
$SPLFRAME
 70
               0
  9
$SPLINETYPE
 70
               6
  9
$SPLINESEGS
 70
               8
  9
$ATTDIA
 70
               0
  9
$ATTREQ
 70
               1
  9
$HANDLING
 70
               1
  9
$HANDSEED
  5
3B4
  9
$SURFTAB1
 70
               6
  9
$SURFTAB2
 70
               6
  9
$SURFTYPE
 70
               6
  9
$SURFU
 70
               6
  9
$SURFV
 70
               6
  9
$UCSNAME
  2

  9
$UCSORG
 10
0.0
 20
0.0
 30
0.0
  9
$UCSXDIR
 10
1.0
 20
0.0
 30
0.0
  9
$UCSYDIR
 10
0.0
 20
1.0
 30
0.0
  9
$PUCSNAME
  2

  9
$PUCSORG
 10
0.0
 20
0.0
 30
0.0
  9
$PUCSXDIR
 10
1.0
 20
0.0
 30
0.0
  9
$PUCSYDIR
 10
0.0
 20
1.0
 30
0.0
  9
$USERI1
 70
               0
  9
$USERI2
 70
               0
  9
$USERI3
 70
               0
  9
$USERI4
 70
               0
  9
$USERI5
 70
               0
  9
$USERR1
 40
0.0
  9
$USERR2
 40
0.0
  9
$USERR3
 40
0.0
  9
$USERR4
 40
0.0
  9
$USERR5
 40
0.0
  9
$WORLDVIEW
 70
               1
  9
$SHADEDGE
 70
               3
  9
$SHADEDIF
 70
              70
  9
$TILEMODE
 70
               1
  9
$MAXACTVP
 70
              16
  9
$PINSBASE
 10
0.0
 20
0.0
 30
0.0
  9
$PLIMCHECK
 70
               0
  9
$PEXTMIN
 10
1.0000000000000000E+20
 20
1.0000000000000000E+20
 30
1.0000000000000000E+20
  9
$PEXTMAX
 10
-1.0000000000000000E+20
 20
-1.0000000000000000E+20
 30
-1.0000000000000000E+20
  9
$PLIMMIN
 10
0.0
 20
0.0
  9
$PLIMMAX
 10
12.0
 20
9.0
  9
$UNITMODE
 70
               0
  9
$VISRETAIN
 70
               0
  9
$PLINEGEN
 70
               1
  9
$PSLTSCALE
 70
               0
  9
$TREEDEPTH
 70
            3020
  9
$PICKSTYLE
 70
               1
  9
$CMLSTYLE
  2
Standard
  9
$CMLJUST
 70
               0
  9
$CMLSCALE
 40
1.0
  9
$PROXYGRAPHICS
 70
               0
  9
$MEASUREMENT
 70
               0
  0
ENDSEC
  0
SECTION
  2
CLASSES
  0
CLASS
  1
LWPOLYLINE
  2
AcDbPolyline
  3
"AutoCAD"
 90
        0
280
               0
281
               1
  0
CLASS
  1
IMAGE
  2
AcDbRasterImage
  3
ISM
 90
      127
280
               0
281
               1
  0
CLASS
  1
OLE2FRAME
  2
AcDbOle2Frame
  3
""
 90
        0
280
               0
281
               1
  0
CLASS
  1
HATCH
  2
AcDbHatch
  3
"ACAD_SEDONA"
 90
        0
280
               0
281
               1
  0
CLASS
  1
DICTIONARYVAR
  2
AcDbDictionaryVar
  3
"AutoCAD"
 90
        0
280
               0
281
               0
  0
CLASS
  1
RASTERVARIABLES
  2
AcDbRasterVariables
  3
ISM
 90
        0
280
               0
281
               0
  0
CLASS
  1
IMAGEDEF
  2
AcDbRasterImageDef
  3
ISM
 90
        0
280
               0
281
               0
  0
CLASS
  1
IMAGEDEF_REACTOR
  2
AcDbRasterImageDefReactor
  3
ISM
 90
        1
280
               0
281
               0
  0
CLASS
  1
IDBUFFER
  2
AcDbIdBuffer
  3
"Acad"
 90
        0
280
               0
281
               0
  0
CLASS
  1
SPATIAL_FILTER
  2
AcDbSpatialFilter
  3
"Acad"
 90
        0
280
               0
281
               0
  0
CLASS
  1
XRECORD
  2
AcDbXrecord
  3
"<Built In>"
 90
        0
280
               0
281
               0
  0
CLASS
  1
SORTENTSTABLE
  2
AcDbSortentsTable
  3
"AutoCAD"
 90
        0
280
               0
281
               0
  0
CLASS
  1
LAYER_INDEX
  2
AcDbLayerIndex
  3
"Acad"
 90
        0
280
               0
281
               0
  0
CLASS
  1
SPATIAL_INDEX
  2
AcDbSpatialIndex
  3
"Acad"
 90
        0
280
               0
281
               0
  0
CLASS
  1
OBJECT_PTR
  2
CAseDLPNTableRecord
  3
"ASE-LPNTableRecord"
 90
        1
280
               0
281
               0
  0
CLASS
  1
LAYOUT
  2
AcDbLayout
  3
"AutoCAD 2000"
 90
        0
280
               0
281
               0
  0
CLASS
  1
PLOTSETTINGS
  2
AcDbPlotSettings
  3
"AutoCAD 2000"
 90
        0
280
               0
281
               0
  0
CLASS
  1
ACDBDICTIONARYWDFLT
  2
AcDbDictionaryWithDefault
  3
"AutoCAD 2000"
 90
        0
280
               0
281
               0
  0
CLASS
  1
ACDBPLACEHOLDER
  2
AcDbPlaceHolder
  3
"AutoCAD 2000"
 90
        0
280
               0
281
               0
  0
CLASS
  1
VBA_PROJECT
  2
AcDbVbaProject
  3
"acadvba"
 90
        0
280
               0
281
               0
  0
CLASS
  1
WIPEOUT
  2
AcDbWipeout
  3
WipeOut|AutoCAD Express Tool|expresstools@autodesk.com
 90
      127
280
               0
281
               1
  0
CLASS
  1
WIPEOUTVARIABLES
  2
AcDbWipeoutVariables
  3
WipeOut|AutoCAD Express Tool|expresstools@autodesk.com
 90
        0
280
               0
281
               0
  0
CLASS
  1
RTEXT
  2
RText
  3
RText|AutoCAD Express Tool|expresstools@autodesk.com
 90
        0
280
               0
281
               1
  0
CLASS
  1
ARCALIGNEDTEXT
  2
AcDbArcAlignedText
  3
ATEXT|AutoCAD Express Tool|expresstools@autodesk.com
 90
        0
280
               0
281
               1
  0
ENDSEC
  0
SECTION
  2
TABLES
  0
TABLE
  2
VPORT
  5
7
100
AcDbSymbolTable
 70
               1
  0
VPORT
  5
15
100
AcDbSymbolTableRecord
100
AcDbViewportTableRecord
  2
*ACTIVE
 70
               0
 10
0.0
 20
0.0
 11
1.0
 21
1.0
 12
841.0
 22
594.0
 13
0.0
 23
0.0
 14
10.0
 24
10.0
 15
10.0
 25
10.0
 16
0.0
 26
0.0
 36
1.0
 17
0.0
 27
0.0
 37
0.0
 40
1188.0
 41
1.4158249158249159
 42
50.0
 43
0.0
 44
0.0
 50
0.0
 51
0.0
 71
               0
 72
             100
 73
               1
 74
               1
 75
               0
 76
               0
 77
               0
 78
               0
  0
ENDTAB
  0
TABLE
  2
LTYPE
  5
4
100
AcDbSymbolTable
 70
              24
  0
LTYPE
  5
11
100
AcDbSymbolTableRecord
100
AcDbLinetypeTableRecord
  2
ByBlock
 70
              64
  3

 72
              65
 73
               0
 40
0.0
  0
LTYPE
  5
12
100
AcDbSymbolTableRecord
100
AcDbLinetypeTableRecord
  2
ByLayer
 70
              64
  3

 72
              65
 73
               0
 40
0.0
  0
LTYPE
  5
13
100
AcDbSymbolTableRecord
100
AcDbLinetypeTableRecord
  2
Continuous
 70
              64
  3
Solid line
 72
              65
 73
               0
 40
0.0
  0
LTYPE
  5
1D
100
AcDbSymbolTableRecord
100
AcDbLinetypeTableRecord
  2
DOT
 70
              64
  3
Dot . . . . . . . . . . . . . . . . . . . . . .
 72
              65
 73
               2
 40
6.3499999999999996
 49
0.35
 74
               0
 49
-6.0
 74
               0
  0
LTYPE
  5
1E
100
AcDbSymbolTableRecord
100
AcDbLinetypeTableRecord
  2
DASHED
 70
              64
  3
Dashed __ __ __ __ __ __ __ __ __ __ __ __ __ _
 72
              65
 73
               2
 40
12.699999999999999
 49
6.3499999999999996
 74
               0
 49
-6.3499999999999996
 74
               0
  0
LTYPE
  5
1F
100
AcDbSymbolTableRecord
100
AcDbLinetypeTableRecord
  2
DASHDOT
 70
              64
  3
Dash dot __ . __ . __ . __ . __ . __ . __ . __
 72
              65
 73
               4
 40
25.399999999999999
 49
12.699999999999999
 74
               0
 49
-6.0
 74
               0
 49
0.7
 74
               0
 49
-6.0
 74
               0
  0
LTYPE
  5
20
100
AcDbSymbolTableRecord
100
AcDbLinetypeTableRecord
  2
DIVIDE
 70
              64
  3
Divide ____ . . ____ . . ____ . . ____ . . ____
 72
              65
 73
               6
 40
31.75
 49
12.699999999999999
 74
               0
 49
-6.0
 74
               0
 49
0.875
 74
               0
 49
-6.0
 74
               0
 49
0.875
 74
               0
 49
-6.0
 74
               0
  0
LTYPE
  5
21
100
AcDbSymbolTableRecord
100
AcDbLinetypeTableRecord
  2
HIDDEN
 70
              64
  3
Hidden __ __ __ __ __ __ __ __ __ __ __ __ __ _
 72
              65
 73
               2
 40
9.5250000000000004
 49
6.3499999999999996
 74
               0
 49
-3.1749999999999998
 74
               0
  0
LTYPE
  5
22
100
AcDbSymbolTableRecord
100
AcDbLinetypeTableRecord
  2
CENTER
 70
              64
  3
Center ____ _ ____ _ ____ _ ____ _ ____ _ ____
 72
              65
 73
               4
 40
50.799999999999997
 49
31.75
 74
               0
 49
-6.3499999999999996
 74
               0
 49
6.3499999999999996
 74
               0
 49
-6.3499999999999996
 74
               0
  0
LTYPE
  5
23
100
AcDbSymbolTableRecord
100
AcDbLinetypeTableRecord
  2
PHANTOM
 70
              64
  3
Phantom ______  __  __  ______  __  __  ______
 72
              65
 73
               6
 40
63.5
 49
31.75
 74
               0
 49
-6.3499999999999996
 74
               0
 49
6.3499999999999996
 74
               0
 49
-6.3499999999999996
 74
               0
 49
6.3499999999999996
 74
               0
 49
-6.3499999999999996
 74
               0
  0
LTYPE
  5
24
100
AcDbSymbolTableRecord
100
AcDbLinetypeTableRecord
  2
ACAD_ISO02W100
 70
              64
  3
ISO dash __ __ __ __ __ __ __ __ __ __ __ __ __
 72
              65
 73
               2
 40
15.0
 49
12.0
 74
               0
 49
-3.0
 74
               0
  0
LTYPE
  5
25
100
AcDbSymbolTableRecord
100
AcDbLinetypeTableRecord
  2
ACAD_ISO03W100
 70
              64
  3
ISO dash space __ __ __ __ __ __ __ __ __ __ __ __ __ __
 72
              65
 73
               2
 40
30.0
 49
12.0
 74
               0
 49
-18.0
 74
               0
  0
LTYPE
  5
26
100
AcDbSymbolTableRecord
100
AcDbLinetypeTableRecord
  2
ACAD_ISO04W100
 70
              64
  3
ISO long-dash dot ____ . ____ . ____ . ____ . _
 72
              65
 73
               4
 40
30.0
 49
24.0
 74
               0
 49
-3.0
 74
               0
 49
0.0
 74
               0
 49
-3.0
 74
               0
  0
LTYPE
  5
27
100
AcDbSymbolTableRecord
100
AcDbLinetypeTableRecord
  2
ACAD_ISO05W100
 70
              64
  3
ISO long-dash double-dot ____ .. ____ .. ____ .
 72
              65
 73
               6
 40
33.0
 49
24.0
 74
               0
 49
-3.0
 74
               0
 49
0.0
 74
               0
 49
-3.0
 74
               0
 49
0.0
 74
               0
 49
-3.0
 74
               0
  0
LTYPE
  5
28
100
AcDbSymbolTableRecord
100
AcDbLinetypeTableRecord
  2
ACAD_ISO06W100
 70
              64
  3
ISO long-dash triple-dot ____ ... ____ ... ____
 72
              65
 73
               8
 40
36.0
 49
24.0
 74
               0
 49
-3.0
 74
               0
 49
0.0
 74
               0
 49
-3.0
 74
               0
 49
0.0
 74
               0
 49
-3.0
 74
               0
 49
0.0
 74
               0
 49
-3.0
 74
               0
  0
LTYPE
  5
29
100
AcDbSymbolTableRecord
100
AcDbLinetypeTableRecord
  2
ACAD_ISO07W100
 70
              64
  3
ISO dot . . . . . . . . . . . . . . . . . . . .
 72
              65
 73
               2
 40
3.0
 49
0.0
 74
               0
 49
-3.0
 74
               0
  0
LTYPE
  5
2A
100
AcDbSymbolTableRecord
100
AcDbLinetypeTableRecord
  2
ACAD_ISO08W100
 70
              64
  3
ISO long-dash short-dash ____ __ ____ __ ____ _
 72
              65
 73
               4
 40
36.0
 49
24.0
 74
               0
 49
-3.0
 74
               0
 49
6.0
 74
               0
 49
-3.0
 74
               0
  0
LTYPE
  5
2B
100
AcDbSymbolTableRecord
100
AcDbLinetypeTableRecord
  2
ACAD_ISO09W100
 70
              64
  3
ISO long-dash double-short-dash ____ __ __ ____
 72
              65
 73
               6
 40
45.0
 49
24.0
 74
               0
 49
-3.0
 74
               0
 49
6.0
 74
               0
 49
-3.0
 74
               0
 49
6.0
 74
               0
 49
-3.0
 74
               0
  0
LTYPE
  5
2C
100
AcDbSymbolTableRecord
100
AcDbLinetypeTableRecord
  2
ACAD_ISO10W100
 70
              64
  3
ISO dash dot __ . __ . __ . __ . __ . __ . __ .
 72
              65
 73
               4
 40
18.0
 49
12.0
 74
               0
 49
-3.0
 74
               0
 49
0.0
 74
               0
 49
-3.0
 74
               0
  0
LTYPE
  5
2D
100
AcDbSymbolTableRecord
100
AcDbLinetypeTableRecord
  2
ACAD_ISO11W100
 70
              64
  3
ISO double-dash dot __ __ . __ __ . __ __ . __ 
 72
              65
 73
               6
 40
33.0
 49
12.0
 74
               0
 49
-3.0
 74
               0
 49
12.0
 74
               0
 49
-3.0
 74
               0
 49
0.0
 74
               0
 49
-3.0
 74
               0
  0
LTYPE
  5
2E
100
AcDbSymbolTableRecord
100
AcDbLinetypeTableRecord
  2
ACAD_ISO12W100
 70
              64
  3
ISO dash double-dot __ . . __ . . __ . . __ . .
 72
              65
 73
               6
 40
21.0
 49
12.0
 74
               0
 49
-3.0
 74
               0
 49
0.0
 74
               0
 49
-3.0
 74
               0
 49
0.0
 74
               0
 49
-3.0
 74
               0
  0
LTYPE
  5
2F
100
AcDbSymbolTableRecord
100
AcDbLinetypeTableRecord
  2
ACAD_ISO13W100
 70
              64
  3
ISO double-dash double-dot __ __ . . __ __ . . 
 72
              65
 73
               8
 40
36.0
 49
12.0
 74
               0
 49
-3.0
 74
               0
 49
12.0
 74
               0
 49
-3.0
 74
               0
 49
0.0
 74
               0
 49
-3.0
 74
               0
 49
0.0
 74
               0
 49
-3.0
 74
               0
  0
LTYPE
  5
30
100
AcDbSymbolTableRecord
100
AcDbLinetypeTableRecord
  2
ACAD_ISO14W100
 70
              64
  3
ISO dash triple-dot __ . . . __ . . . __ . . . 
 72
              65
 73
               8
 40
24.0
 49
12.0
 74
               0
 49
-3.0
 74
               0
 49
0.0
 74
               0
 49
-3.0
 74
               0
 49
0.0
 74
               0
 49
-3.0
 74
               0
 49
0.0
 74
               0
 49
-3.0
 74
               0
  0
LTYPE
  5
31
100
AcDbSymbolTableRecord
100
AcDbLinetypeTableRecord
  2
ACAD_ISO15W100
 70
              64
  3
ISO double-dash double-dot __ __ . . __ __ . . 
 72
              65
 73
              10
 40
39.0
 49
12.0
 74
               0
 49
-3.0
 74
               0
 49
12.0
 74
               0
 49
-3.0
 74
               0
 49
0.0
 74
               0
 49
-3.0
 74
               0
 49
0.0
 74
               0
 49
-3.0
 74
               0
 49
0.0
 74
               0
 49
-3.0
 74
               0
  0
ENDTAB
  0
TABLE
  2
LAYER
  5
2
100
AcDbSymbolTable
 70
              17
  0
LAYER
  5
14
100
AcDbSymbolTableRecord
100
AcDbLayerTableRecord
  2
0
 70
               0
 62
               7
  6
Continuous
  0
LAYER
  5
35
100
AcDbSymbolTableRecord
100
AcDbLayerTableRecord
  2
1
 70
               0
 62
               7
  6
Continuous
  0
LAYER
  5
36
100
AcDbSymbolTableRecord
100
AcDbLayerTableRecord
  2
2
 70
               0
 62
               7
  6
Continuous
  0
LAYER
  5
37
100
AcDbSymbolTableRecord
100
AcDbLayerTableRecord
  2
3
 70
               0
 62
               7
  6
Continuous
  0
LAYER
  5
38
100
AcDbSymbolTableRecord
100
AcDbLayerTableRecord
  2
4
 70
               0
 62
               7
  6
Continuous
  0
LAYER
  5
39
100
AcDbSymbolTableRecord
100
AcDbLayerTableRecord
  2
5
 70
               0
 62
               7
  6
Continuous
  0
LAYER
  5
3A
100
AcDbSymbolTableRecord
100
AcDbLayerTableRecord
  2
6
 70
               0
 62
               7
  6
Continuous
  0
LAYER
  5
3B
100
AcDbSymbolTableRecord
100
AcDbLayerTableRecord
  2
7
 70
               0
 62
               7
  6
Continuous
  0
LAYER
  5
3C
100
AcDbSymbolTableRecord
100
AcDbLayerTableRecord
  2
8
 70
               0
 62
               7
  6
Continuous
  0
LAYER
  5
3D
100
AcDbSymbolTableRecord
100
AcDbLayerTableRecord
  2
9
 70
               0
 62
               7
  6
Continuous
  0
LAYER
  5
3E
100
AcDbSymbolTableRecord
100
AcDbLayerTableRecord
  2
10
 70
               0
 62
               7
  6
Continuous
  0
LAYER
  5
3F
100
AcDbSymbolTableRecord
100
AcDbLayerTableRecord
  2
11
 70
               0
 62
               7
  6
Continuous
  0
LAYER
  5
40
100
AcDbSymbolTableRecord
100
AcDbLayerTableRecord
  2
12
 70
               0
 62
               7
  6
Continuous
  0
LAYER
  5
41
100
AcDbSymbolTableRecord
100
AcDbLayerTableRecord
  2
13
 70
               0
 62
               7
  6
Continuous
  0
LAYER
  5
42
100
AcDbSymbolTableRecord
100
AcDbLayerTableRecord
  2
14
 70
               0
 62
               7
  6
Continuous
  0
LAYER
  5
43
100
AcDbSymbolTableRecord
100
AcDbLayerTableRecord
  2
15
 70
               0
 62
               7
  6
Continuous
  0
LAYER
  5
44
100
AcDbSymbolTableRecord
100
AcDbLayerTableRecord
  2
HOZYOTEN
 70
               0
 62
               7
  6
Continuous
  0
ENDTAB
  0
TABLE
  2
STYLE
  5
3
100
AcDbSymbolTable
 70
               4
  0
STYLE
  5
17
100
AcDbSymbolTableRecord
100
AcDbTextStyleTableRecord
  2
Standard
 70
               0
 40
0.0
 41
1.0
 50
0.0
 71
               0
 42
0.0
  3
txt.shx
  4
bigfont.shx
  0
STYLE
  5
32
100
AcDbSymbolTableRecord
100
AcDbTextStyleTableRecord
  2
STANDARD_T
 70
               4
 40
0.0
 41
1.0
 50
0.0
 71
               0
 42
0.0
  3
txt.shx
  4
bigfont.shx
  0
STYLE
  5
33
100
AcDbSymbolTableRecord
100
AcDbTextStyleTableRecord
  2
FontTableH_0
 70
               0
 40
0.0
 41
1.0
 50
0.0
 71
               0
 42
0.0
  3
MS Gothic.ttf
  4

1001
ACAD
1000
MS Gothic
1071
    32817
  0
STYLE
  5
34
100
AcDbSymbolTableRecord
100
AcDbTextStyleTableRecord
  2
FontTableV_0
 70
               0
 40
0.0
 41
1.0
 50
0.0
 71
               0
 42
0.0
  3
@MS Gothic.ttf
  4

1001
ACAD
1000
@MS Gothic
1071
    32817
  0
ENDTAB
  0
TABLE
  2
VIEW
  5
5
100
AcDbSymbolTable
 70
               0
  0
ENDTAB
  0
TABLE
  2
UCS
  5
6
100
AcDbSymbolTable
 70
               0
  0
ENDTAB
  0
TABLE
  2
APPID
  5
8
100
AcDbSymbolTable
 70
               1
  0
APPID
  5
16
100
AcDbSymbolTableRecord
100
AcDbRegAppTableRecord
  2
ACAD
 70
               0
  0
ENDTAB
  0
TABLE
  2
DIMSTYLE
  5
9
100
AcDbSymbolTable
 70
               1
  0
DIMSTYLE
105
18
100
AcDbSymbolTableRecord
100
AcDbDimStyleTableRecord
  2
Standard
 70
               0
  3

  4

  5

  6

  7

 40
1.0
 41
0.18
 42
0.0625
 43
0.38
 44
0.18
 45
0.0
 46
0.0
 47
0.0
 48
0.0
 71
               0
 72
               0
 73
               1
 74
               1
 75
               0
 76
               0
 77
               0
 78
               0
140
0.18
141
0.09
142
0.0
143
25.399999999999999
144
1.0
145
0.0
146
1.0
147
0.09
170
               0
171
               2
172
               0
173
               0
174
               0
175
               0
176
               0
177
               0
178
               0
270
               2
271
               4
272
               4
273
               2
274
               2
275
               0
280
               0
281
               0
282
               0
283
               1
284
               0
285
               0
286
               0
287
               0
288
               0
340
17
  0
ENDTAB
  0
TABLE
  2
BLOCK_RECORD
  5
1
100
AcDbSymbolTable
 70
               0
  0
BLOCK_RECORD
  5
A
100
AcDbSymbolTableRecord
100
AcDbBlockTableRecord
  2
*MODEL_SPACE
  0
BLOCK_RECORD
  5
B
100
AcDbSymbolTableRecord
100
AcDbBlockTableRecord
  2
*PAPER_SPACE
  0
ENDTAB
  0
ENDSEC
  0
SECTION
  2
BLOCKS
  0
BLOCK
  5
D
100
AcDbEntity
  8
0
100
AcDbBlockBegin
  2
*MODEL_SPACE
 70
               0
 10
0.0
 20
0.0
 30
0.0
  3
*MODEL_SPACE
  1

  0
ENDBLK
  5
E
100
AcDbEntity
  8
0
100
AcDbBlockEnd
  0
BLOCK
  5
F
100
AcDbEntity
 67
               1
  8
0
100
AcDbBlockBegin
  2
*PAPER_SPACE
 70
               0
 10
0.0
 20
0.0
 30
0.0
  3
*PAPER_SPACE
  1

  0
ENDBLK
  5
10
100
AcDbEntity
 67
               1
  8
0
100
AcDbBlockEnd
  0
ENDSEC
  0
SECTION
  2
ENTITIES
  0
LINE
  5
45
100
AcDbEntity
  8
0
  6
DASHDOT
 62
               4
100
AcDbLine
 10
541.74397459813952
 20
561.08639040986338
 30
0.0
 11
1507.5568671302067
 21
561.08639040986327
 31
0.0
  0
LINE
  5
46
100
AcDbEntity
  8
0
  6
DASHDOT
 62
               4
100
AcDbLine
 10
971.55686713020611
 20
274.26294306291635
 30
0.0
 11
971.55686713020611
 21
1100.3001989562949
 31
0.0
  0
LINE
  5
47
100
AcDbEntity
  8
0
  6
DASHDOT
 62
               4
100
AcDbLine
 10
1493.1733051756778
 20
622.45269044691895
 30
0.0
 11
547.61166331517904
 21
511.21076019761961
 31
0.0
  0
LINE
  5
48
100
AcDbEntity
  8
0
  6
Continuous
 62
               6
100
AcDbLine
 10
896.55686713020611
 20
636.08639040986327
 30
0.0
 11
1046.5568671302062
 21
636.08639040986327
 31
0.0
  0
LINE
  5
49
100
AcDbEntity
  8
0
  6
Continuous
 62
               6
100
AcDbLine
 10
1046.5568671302062
 20
636.08639040986327
 30
0.0
 11
1046.5568671302062
 21
626.08639040986327
 31
0.0
  0
LINE
  5
4A
100
AcDbEntity
  8
0
  6
Continuous
 62
               6
100
AcDbLine
 10
1046.5568671302062
 20
486.08639040986327
 30
0.0
 11
896.55686713020611
 21
486.08639040986327
 31
0.0
  0
LINE
  5
4B
100
AcDbEntity
  8
0
  6
Continuous
 62
               6
100
AcDbLine
 10
896.55686713020611
 20
486.08639040986327
 30
0.0
 11
896.55686713020611
 21
496.08639040986327
 31
0.0
  0
LINE
  5
4C
100
AcDbEntity
  8
0
  6
Continuous
 62
               6
100
AcDbLine
 10
986.05686713020611
 20
496.08639040986327
 30
0.0
 11
1046.5568671302062
 21
496.08639040986327
 31
0.0
  0
LINE
  5
4D
100
AcDbEntity
  8
0
  6
Continuous
 62
               6
100
AcDbLine
 10
957.05686713020611
 20
626.08639040986327
 30
0.0
 11
896.55686713020611
 21
626.08639040986327
 31
0.0
  0
LINE
  5
4E
100
AcDbEntity
  8
0
  6
Continuous
 62
               6
100
AcDbLine
 10
968.05686713020611
 20
615.08639040986327
 30
0.0
 11
968.05686713020611
 21
507.08639040986327
 31
0.0
  0
LINE
  5
4F
100
AcDbEntity
  8
0
  6
Continuous
 62
               6
100
AcDbLine
 10
975.05686713020611
 20
507.08639040986327
 30
0.0
 11
975.05686713020611
 21
615.08639040986327
 31
0.0
  0
LINE
  5
50
100
AcDbEntity
  8
0
  6
Continuous
 62
               6
100
AcDbLine
 10
1046.5568671302062
 20
496.08639040986327
 30
0.0
 11
1046.5568671302062
 21
486.08639040986327
 31
0.0
  0
LINE
  5
51
100
AcDbEntity
  8
0
  6
Continuous
 62
               6
100
AcDbLine
 10
896.55686713020611
 20
626.08639040986327
 30
0.0
 11
896.55686713020611
 21
636.08639040986327
 31
0.0
  0
LINE
  5
52
100
AcDbEntity
  8
0
  6
Continuous
 62
               6
100
AcDbLine
 10
957.05686713020611
 20
496.08639040986327
 30
0.0
 11
896.55686713020611
 21
496.08639040986327
 31
0.0
  0
LINE
  5
53
100
AcDbEntity
  8
0
  6
Continuous
 62
               6
100
AcDbLine
 10
986.05686713020611
 20
626.08639040986327
 30
0.0
 11
1046.5568671302062
 21
626.08639040986327
 31
0.0
  0
LINE
  5
54
100
AcDbEntity
  8
0
  6
DASHDOT
 62
               4
100
AcDbLine
 10
1095.5568671302062
 20
877.74351214648277
 30
0.0
 11
1095.5568671302062
 21
274.26294306291635
 31
0.0
  0
LINE
  5
55
100
AcDbEntity
  8
0
  6
DASHDOT
 62
               4
100
AcDbLine
 10
518.4015109274319
 20
759.49843004347508
 30
0.0
 11
1145.5568671302062
 21
833.28100465480475
 31
0.0
  0
LINE
  5
56
100
AcDbEntity
  8
0
  6
Continuous
 62
               7
100
AcDbLine
 10
1045.5568671302062
 20
861.86119177071021
 30
0.0
 11
1045.5568671302062
 21
346.26294306291641
 31
0.0
  0
LINE
  5
57
100
AcDbEntity
  8
0
  6
Continuous
 62
               7
100
AcDbLine
 10
1015.625360336372
 20
767.65020178999009
 30
0.0
 11
524.24354140498133
 21
709.84089607430394
 31
0.0
  0
LINE
  5
58
100
AcDbEntity
  8
0
  6
Continuous
 62
               7
100
AcDbLine
 10
1015.625360336372
 20
868.33985752489127
 30
0.0
 11
512.55948044988236
 21
809.15596401264622
 31
0.0
  0
LINE
  5
59
100
AcDbEntity
  8
0
  6
Continuous
 62
               7
100
AcDbLine
 10
1025.5568671302062
 20
859.50826362040118
 30
0.0
 11
1025.5568671302062
 21
778.8186078855
 31
0.0
  0
LINE
  5
5A
100
AcDbEntity
  8
0
  6
Continuous
 62
               7
100
AcDbLine
 10
1135.6253603363721
 20
882.45742642674554
 30
0.0
 11
1055.4883739240404
 21
873.02959786622023
 31
0.0
  0
LINE
  5
5B
100
AcDbEntity
  8
0
  6
Continuous
 62
               7
100
AcDbLine
 10
1015.625360336372
 20
767.65020178999009
 30
0.0
 11
1025.5568671302062
 21
778.8186078855
 31
0.0
  0
LINE
  5
5C
100
AcDbEntity
  8
0
  6
Continuous
 62
               7
100
AcDbLine
 10
1025.5568671302062
 20
859.50826362040118
 30
0.0
 11
1015.625360336372
 21
868.33985752489127
 31
0.0
  0
LINE
  5
5D
100
AcDbEntity
  8
0
  6
Continuous
 62
               7
100
AcDbLine
 10
1045.5568671302062
 20
861.86119177071021
 30
0.0
 11
1055.4883739240404
 21
873.02959786622023
 31
0.0
  0
LINE
  5
5E
100
AcDbEntity
  8
0
  6
Continuous
 62
               7
100
AcDbLine
 10
1135.6253603363721
 20
882.45742642674554
 30
0.0
 11
1145.5568671302062
 21
873.62583252225545
 31
0.0
  0
LINE
  5
5F
100
AcDbEntity
  8
0
  6
Continuous
 62
               7
100
AcDbLine
 10
1171.5568671302067
 20
906.82257026463731
 30
0.0
 11
510.22266825886265
 21
829.01897760031466
 31
0.0
  0
LINE
  5
60
100
AcDbEntity
  8
0
  6
Continuous
 62
               7
100
AcDbLine
 10
1165.5568671302067
 20
906.11669181954471
 30
0.0
 11
1165.5568671302067
 21
346.26294306291641
 31
0.0
  0
LINE
  5
61
100
AcDbEntity
  8
0
  6
Continuous
 62
               7
100
AcDbLine
 10
1145.5568671302062
 20
883.62583252225545
 30
0.0
 11
512.55948044988236
 21
809.15596401264622
 31
0.0
  0
LINE
  5
62
100
AcDbEntity
  8
0
  6
Continuous
 62
               7
100
AcDbLine
 10
1145.5568671302062
 20
903.76376366923569
 30
0.0
 11
1145.5568671302062
 21
346.26294306291641
 31
0.0
  0
LINE
  5
63
100
AcDbEntity
  8
0
  6
DASHDOT
 62
               4
100
AcDbLine
 10
971.55686713020611
 20
561.08639040986327
 30
0.0
 11
916.87546037249797
 21
1025.8809210080572
 31
0.0
  0
LINE
  5
64
100
AcDbEntity
  8
0
  6
Continuous
 62
               7
100
AcDbLine
 10
1170.8558234729007
 20
912.78147434093785
 30
0.0
 11
509.52162460155671
 21
834.9778816766152
 31
0.0
  0
LINE
  5
65
100
AcDbEntity
  8
0
  6
Continuous
 62
               4
100
AcDbLine
 10
1001.7213812939593
 20
1021.7661869939209
 30
0.0
 11
1025.0895046920023
 21
823.13603847048421
 31
0.0
  0
LINE
  5
66
100
AcDbEntity
  8
0
  6
Continuous
 62
               4
100
AcDbLine
 10
918.74491012531382
 20
1009.9905101379222
 30
0.0
 11
1001.9550625130613
 21
1019.779885635154
 31
0.0
  0
LINE
  5
67
100
AcDbEntity
  8
0
  6
Continuous
 62
               4
100
AcDbLine
 10
1070.0856127602456
 20
1043.9055450313704
 30
0.0
 11
1095.0895046920023
 21
831.3712869965658
 31
0.0
  0
LINE
  5
68
100
AcDbEntity
  8
0
  6
Continuous
 62
               4
100
AcDbLine
 10
1001.9550625130613
 20
1019.779885635154
 30
0.0
 11
1071.9550625130614
 21
1028.0151341612357
 31
0.0
  0
LINE
  5
69
100
AcDbEntity
  8
0
  6
Continuous
 62
               4
100
AcDbLine
 10
917.10914159159995
 20
1023.8946196492902
 30
0.0
 11
1070.3192939793475
 21
1041.9192436726034
 31
0.0
  0
LINE
  5
6A
100
AcDbEntity
  8
0
  6
Continuous
 62
               4
100
AcDbLine
 10
1099.5568671302062
 20
827.39868427903207
 30
0.0
 11
1383.5568671302067
 21
827.39868427903207
 31
0.0
  0
LINE
  5
6B
100
AcDbEntity
  8
0
  6
Continuous
 62
               4
100
AcDbLine
 10
1381.5568671302067
 20
561.08639040986327
 30
0.0
 11
1381.5568671302067
 21
827.39868427903207
 31
0.0
  0
LINE
  5
6C
100
AcDbEntity
  8
0
  6
Continuous
 62
               4
100
AcDbLine
 10
1149.5568671302067
 20
883.62583252225545
 30
0.0
 11
1383.5568671302067
 21
883.62583252225545
 31
0.0
  0
LINE
  5
6D
100
AcDbEntity
  8
0
  6
Continuous
 62
               4
100
AcDbLine
 10
1381.5568671302067
 20
827.39868427903207
 30
0.0
 11
1381.5568671302067
 21
883.62583252225545
 31
0.0
  0
LINE
  5
6E
100
AcDbEntity
  8
0
  6
Continuous
 62
               7
100
AcDbLine
 10
1145.5568671302062
 20
391.75546404841737
 30
0.0
 11
1045.5568671302062
 21
491.75546404841737
 31
0.0
  0
LINE
  5
6F
100
AcDbEntity
  8
0
  6
Continuous
 62
               7
100
AcDbLine
 10
1145.5568671302062
 20
405.89759967214832
 30
0.0
 11
1045.5568671302062
 21
505.89759967214832
 31
0.0
  0
LINE
  5
70
100
AcDbEntity
  8
0
  6
Continuous
 62
               7
100
AcDbLine
 10
1145.5568671302062
 20
674.59817652303627
 30
0.0
 11
1045.5568671302062
 21
774.59817652303627
 31
0.0
  0
LINE
  5
71
100
AcDbEntity
  8
0
  6
Continuous
 62
               7
100
AcDbLine
 10
1145.5568671302062
 20
688.74031214676722
 30
0.0
 11
1045.5568671302062
 21
788.74031214676722
 31
0.0
  0
LINE
  5
72
100
AcDbEntity
  8
0
  6
Continuous
 62
               7
100
AcDbLine
 10
921.50381315835045
 20
756.57713989469983
 30
0.0
 11
810.50468426490909
 21
844.20814687794302
 31
0.0
  0
LINE
  5
73
100
AcDbEntity
  8
0
  6
Continuous
 62
               7
100
AcDbLine
 10
640.59838110553244
 20
723.52962496211001
 30
0.0
 11
529.5992522120913
 21
811.16063194535332
 31
0.0
  0
LINE
  5
74
100
AcDbEntity
  8
0
  6
Continuous
 62
               7
100
AcDbLine
 10
654.64365270817336
 20
725.18200070873957
 30
0.0
 11
543.64452381473222
 21
812.81300769198276
 31
0.0
  0
LINE
  5
75
100
AcDbEntity
  8
0
  6
Continuous
 62
               7
100
AcDbLine
 10
935.54908476099115
 20
758.22951564132927
 30
0.0
 11
824.54995586755001
 21
845.86052262457258
 31
0.0
  0
LINE
  5
76
100
AcDbEntity
  8
0
  6
Continuous
 62
               6
100
AcDbLine
 10
980.55686713020611
 20
481.08639040986327
 30
0.0
 11
980.55686713020611
 21
346.26294306291641
 31
0.0
  0
LINE
  5
77
100
AcDbEntity
  8
0
  6
Continuous
 62
               6
100
AcDbLine
 10
980.55686713020611
 20
481.08639040986327
 30
0.0
 11
1045.5568671302062
 21
481.08639040986327
 31
0.0
  0
LINE
  5
78
100
AcDbEntity
  8
0
  6
Continuous
 62
               6
100
AcDbLine
 10
980.55686713020611
 20
698.07624331961881
 30
0.0
 11
531.83818102579573
 21
645.28610191438156
 31
0.0
  0
LINE
  5
79
100
AcDbEntity
  8
0
  6
Continuous
 62
               6
100
AcDbLine
 10
980.55686713020611
 20
698.07624331961881
 30
0.0
 11
972.96222750939171
 21
762.63103747954131
 31
0.0
  0
LINE
  5
7A
100
AcDbEntity
  8
0
  6
Continuous
 62
               6
100
AcDbLine
 10
973.66327116669765
 20
756.67213340324076
 30
0.0
 11
524.94458506228727
 21
703.88199199800351
 31
0.0
  0
LINE
  5
7B
100
AcDbEntity
  8
0
  6
Continuous
 62
               6
100
AcDbLine
 10
972.96222750939171
 20
762.63103747954142
 30
0.0
 11
524.24354140498133
 21
709.84089607430406
 31
0.0
  0
LINE
  5
7C
100
AcDbEntity
  8
0
  6
Continuous
 62
               7
100
AcDbLine
 10
1115.5568671302062
 20
423.58639040986327
 30
0.0
 11
1145.5568671302062
 21
423.58639040986327
 31
0.0
  0
LINE
  5
7D
100
AcDbEntity
  8
0
  6
Continuous
 62
               7
100
AcDbLine
 10
1115.5568671302062
 20
378.58639040986327
 30
0.0
 11
1145.5568671302062
 21
378.58639040986327
 31
0.0
  0
LINE
  5
7E
100
AcDbEntity
  8
0
  6
Continuous
 62
               7
100
AcDbLine
 10
1115.5568671302062
 20
423.58639040986327
 30
0.0
 11
1115.5568671302062
 21
378.58639040986327
 31
0.0
  0
LINE
  5
7F
100
AcDbEntity
  8
0
  6
Continuous
 62
               7
100
AcDbLine
 10
1118.5568671302062
 20
421.08639040986327
 30
0.0
 11
1118.5568671302062
 21
381.08639040986327
 31
0.0
  0
LINE
  5
80
100
AcDbEntity
  8
0
  6
DASHDOT
 62
               7
100
AcDbLine
 10
1017.5568671302059
 20
401.08639040986327
 30
0.0
 11
1146.5568671302062
 21
401.08639040986327
 31
0.0
  0
LINE
  5
81
100
AcDbEntity
  8
0
  6
Continuous
 62
               7
100
AcDbLine
 10
1130.5568671302062
 20
410.08639040986327
 30
0.0
 11
1130.5568671302062
 21
392.08639040986327
 31
0.0
  0
LINE
  5
82
100
AcDbEntity
  8
0
  6
Continuous
 62
               7
100
AcDbLine
 10
1118.5568671302062
 20
389.08639040986327
 30
0.0
 11
1128.5568671302062
 21
389.08639040986327
 31
0.0
  0
LINE
  5
83
100
AcDbEntity
  8
0
  6
Continuous
 62
               7
100
AcDbLine
 10
1118.5568671302062
 20
413.08639040986327
 30
0.0
 11
1128.5568671302062
 21
413.08639040986327
 31
0.0
  0
LINE
  5
84
100
AcDbEntity
  8
0
  6
Continuous
 62
               7
100
AcDbLine
 10
1115.5568671302062
 20
381.08639040986327
 30
0.0
 11
1118.5568671302062
 21
381.08639040986327
 31
0.0
  0
LINE
  5
85
100
AcDbEntity
  8
0
  6
Continuous
 62
               7
100
AcDbLine
 10
1115.5568671302062
 20
421.08639040986327
 30
0.0
 11
1118.5568671302062
 21
421.08639040986327
 31
0.0
  0
LINE
  5
86
100
AcDbEntity
  8
0
  6
Continuous
 62
               7
100
AcDbLine
 10
1128.5568671302062
 20
413.08639040986327
 30
0.0
 11
1130.5568671302062
 21
410.08639040986327
 31
0.0
  0
LINE
  5
87
100
AcDbEntity
  8
0
  6
Continuous
 62
               7
100
AcDbLine
 10
1128.5568671302062
 20
389.08639040986327
 30
0.0
 11
1130.5568671302062
 21
392.08639040986327
 31
0.0
  0
LINE
  5
88
100
AcDbEntity
  8
0
  6
Continuous
 62
               7
100
AcDbLine
 10
1118.5568671302062
 20
407.08639040986327
 30
0.0
 11
1128.5568671302062
 21
407.08639040986327
 31
0.0
  0
LINE
  5
89
100
AcDbEntity
  8
0
  6
Continuous
 62
               7
100
AcDbLine
 10
1118.5568671302062
 20
395.08639040986327
 30
0.0
 11
1128.5568671302062
 21
395.08639040986327
 31
0.0
  0
LINE
  5
8A
100
AcDbEntity
  8
0
  6
DOT
 62
               7
100
AcDbLine
 10
1039.5568671302058
 20
407.08639040986327
 30
0.0
 11
1118.5568671302062
 21
407.08639040986327
 31
0.0
  0
LINE
  5
8B
100
AcDbEntity
  8
0
  6
DOT
 62
               7
100
AcDbLine
 10
1039.5568671302058
 20
395.08639040986327
 30
0.0
 11
1118.5568671302062
 21
395.08639040986327
 31
0.0
  0
LINE
  5
8C
100
AcDbEntity
  8
0
  6
Continuous
 62
               7
100
AcDbLine
 10
1130.5568671302062
 20
407.08639040986327
 30
0.0
 11
1136.5568671302062
 21
407.08639040986327
 31
0.0
  0
LINE
  5
8D
100
AcDbEntity
  8
0
  6
Continuous
 62
               7
100
AcDbLine
 10
1130.5568671302062
 20
395.08639040986327
 30
0.0
 11
1136.5568671302062
 21
395.08639040986327
 31
0.0
  0
LINE
  5
8E
100
AcDbEntity
  8
0
  6
Continuous
 62
               7
100
AcDbLine
 10
1136.5568671302062
 20
407.08639040986327
 30
0.0
 11
1136.5568671302062
 21
395.08639040986327
 31
0.0
  0
LINE
  5
8F
100
AcDbEntity
  8
0
  6
Continuous
 62
               7
100
AcDbLine
 10
1027.5568671302058
 20
410.08639040986327
 30
0.0
 11
1027.5568671302058
 21
392.08639040986327
 31
0.0
  0
LINE
  5
90
100
AcDbEntity
  8
0
  6
Continuous
 62
               7
100
AcDbLine
 10
1039.5568671302058
 20
389.08639040986327
 30
0.0
 11
1029.5568671302058
 21
389.08639040986327
 31
0.0
  0
LINE
  5
91
100
AcDbEntity
  8
0
  6
Continuous
 62
               7
100
AcDbLine
 10
1039.5568671302058
 20
413.08639040986327
 30
0.0
 11
1029.5568671302058
 21
413.08639040986327
 31
0.0
  0
LINE
  5
92
100
AcDbEntity
  8
0
  6
Continuous
 62
               7
100
AcDbLine
 10
1029.5568671302058
 20
413.08639040986327
 30
0.0
 11
1027.5568671302058
 21
410.08639040986327
 31
0.0
  0
LINE
  5
93
100
AcDbEntity
  8
0
  6
Continuous
 62
               7
100
AcDbLine
 10
1029.5568671302058
 20
389.08639040986327
 30
0.0
 11
1027.5568671302058
 21
392.08639040986327
 31
0.0
  0
LINE
  5
94
100
AcDbEntity
  8
0
  6
Continuous
 62
               7
100
AcDbLine
 10
1039.5568671302058
 20
407.08639040986327
 30
0.0
 11
1029.5568671302058
 21
407.08639040986327
 31
0.0
  0
LINE
  5
95
100
AcDbEntity
  8
0
  6
Continuous
 62
               7
100
AcDbLine
 10
1039.5568671302058
 20
395.08639040986327
 30
0.0
 11
1029.5568671302058
 21
395.08639040986327
 31
0.0
  0
LINE
  5
96
100
AcDbEntity
  8
0
  6
Continuous
 62
               7
100
AcDbLine
 10
1039.5568671302058
 20
389.08639040986327
 30
0.0
 11
1039.5568671302058
 21
413.08639040986327
 31
0.0
  0
LINE
  5
97
100
AcDbEntity
  8
0
  6
Continuous
 62
               7
100
AcDbLine
 10
759.3866151853498
 20
807.98739297113707
 30
0.0
 11
755.88139689882075
 21
837.78191335263978
 31
0.0
  0
LINE
  5
98
100
AcDbEntity
  8
0
  6
Continuous
 62
               7
100
AcDbLine
 10
804.07839575760374
 20
813.24522040093041
 30
0.0
 11
800.57317747107493
 21
843.03974078243323
 31
0.0
  0
LINE
  5
99
100
AcDbEntity
  8
0
  6
Continuous
 62
               7
100
AcDbLine
 10
759.3866151853498
 20
807.98739297113707
 30
0.0
 11
804.07839575760374
 21
813.24522040093041
 31
0.0
  0
LINE
  5
9A
100
AcDbEntity
  8
0
  6
Continuous
 62
               7
100
AcDbLine
 10
761.51897005515536
 20
811.2589465331647
 30
0.0
 11
801.24499723049246
 21
815.93257091520331
 31
0.0
  0
LINE
  5
9B
100
AcDbEntity
  8
0
  6
DASHDOT
 62
               7
100
AcDbLine
 10
793.18288520747103
 20
713.28754010645798
 30
0.0
 11
778.11044657539685
 21
841.40397774691996
 31
0.0
  0
LINE
  5
9C
100
AcDbEntity
  8
0
  6
Continuous
 62
               7
100
AcDbLine
 10
771.04154021376132
 20
824.46200139082634
 30
0.0
 11
788.91825244266317
 21
826.56513236274373
 31
0.0
  0
LINE
  5
9D
100
AcDbEntity
  8
0
  6
Continuous
 62
               7
100
AcDbLine
 10
793.29979179542499
 20
814.9978460387955
 30
0.0
 11
792.13138569991531
 21
824.92935283262977
 31
0.0
  0
LINE
  5
9E
100
AcDbEntity
  8
0
  6
Continuous
 62
               7
100
AcDbLine
 10
769.4641754902226
 20
812.1936714095724
 30
0.0
 11
768.29576939471315
 21
822.12517820340668
 31
0.0
  0
LINE
  5
9F
100
AcDbEntity
  8
0
  6
Continuous
 62
               7
100
AcDbLine
 10
801.5955190591452
 20
812.95311887705293
 30
0.0
 11
801.24499723049246
 21
815.93257091520331
 31
0.0
  0
LINE
  5
A0
100
AcDbEntity
  8
0
  6
Continuous
 62
               7
100
AcDbLine
 10
761.86949188380811
 20
808.27949449501455
 30
0.0
 11
761.51897005515536
 21
811.2589465331647
 31
0.0
  0
LINE
  5
A1
100
AcDbEntity
  8
0
  6
Continuous
 62
               7
100
AcDbLine
 10
768.29576939471315
 20
822.12517820340668
 30
0.0
 11
771.04154021376132
 21
824.46200139082634
 31
0.0
  0
LINE
  5
A2
100
AcDbEntity
  8
0
  6
Continuous
 62
               7
100
AcDbLine
 10
792.13138569991531
 20
824.92935283262977
 30
0.0
 11
788.91825244266317
 21
826.56513236274373
 31
0.0
  0
LINE
  5
A3
100
AcDbEntity
  8
0
  6
Continuous
 62
               7
100
AcDbLine
 10
775.42307956652337
 20
812.89471506687823
 30
0.0
 11
774.25467347101369
 21
822.82622186071239
 31
0.0
  0
LINE
  5
A4
100
AcDbEntity
  8
0
  6
Continuous
 62
               7
100
AcDbLine
 10
787.34088771912445
 20
814.29680238148978
 30
0.0
 11
786.17248162361454
 21
824.22830917532406
 31
0.0
  0
LINE
  5
A5
100
AcDbEntity
  8
0
  6
DOT
 62
               7
100
AcDbLine
 10
784.65348772104937
 20
734.43581139558751
 30
0.0
 11
775.42307956652337
 21
812.89471506687823
 31
0.0
  0
LINE
  5
A6
100
AcDbEntity
  8
0
  6
DOT
 62
               7
100
AcDbLine
 10
796.57129587365023
 20
735.83789871019917
 30
0.0
 11
787.34088771912445
 21
814.29680238148978
 31
0.0
  0
LINE
  5
A7
100
AcDbEntity
  8
0
  6
Continuous
 62
               7
100
AcDbLine
 10
774.02099225191171
 20
824.81252321947932
 30
0.0
 11
773.31994859460599
 21
830.77142729577986
 31
0.0
  0
LINE
  5
A8
100
AcDbEntity
  8
0
  6
Continuous
 62
               7
100
AcDbLine
 10
785.93880040451256
 20
826.21461053409087
 30
0.0
 11
785.23775674720707
 21
832.17351461039141
 31
0.0
  0
LINE
  5
A9
100
AcDbEntity
  8
0
  6
Continuous
 62
               7
100
AcDbLine
 10
773.31994859460599
 20
830.77142729577986
 30
0.0
 11
785.23775674720707
 21
832.17351461039141
 31
0.0
  0
LINE
  5
AA
100
AcDbEntity
  8
0
  6
Continuous
 62
               7
100
AcDbLine
 10
783.07612299751065
 20
722.16748141433345
 30
0.0
 11
800.95283522641228
 21
724.27061238625095
 31
0.0
  0
LINE
  5
AB
100
AcDbEntity
  8
0
  6
Continuous
 62
               7
100
AcDbLine
 10
802.530199949951
 20
736.53894236750489
 30
0.0
 11
803.69860604546068
 21
726.60743557367061
 31
0.0
  0
LINE
  5
AC
100
AcDbEntity
  8
0
  6
Continuous
 62
               7
100
AcDbLine
 10
778.69458364474883
 20
733.73476773828168
 30
0.0
 11
779.86298974025829
 21
723.80326094444752
 31
0.0
  0
LINE
  5
AD
100
AcDbEntity
  8
0
  6
Continuous
 62
               7
100
AcDbLine
 10
779.86298974025829
 20
723.80326094444752
 30
0.0
 11
783.07612299751065
 21
722.16748141433345
 31
0.0
  0
LINE
  5
AE
100
AcDbEntity
  8
0
  6
Continuous
 62
               7
100
AcDbLine
 10
803.69860604546068
 20
726.60743557367061
 30
0.0
 11
800.95283522641228
 21
724.27061238625095
 31
0.0
  0
LINE
  5
AF
100
AcDbEntity
  8
0
  6
Continuous
 62
               7
100
AcDbLine
 10
784.65348772104937
 20
734.43581139558751
 30
0.0
 11
785.82189381655905
 21
724.50430460175335
 31
0.0
  0
LINE
  5
B0
100
AcDbEntity
  8
0
  6
Continuous
 62
               7
100
AcDbLine
 10
796.57129587365023
 20
735.83789871019906
 30
0.0
 11
797.73970196916014
 21
725.90639191636478
 31
0.0
  0
LINE
  5
B1
100
AcDbEntity
  8
0
  6
Continuous
 62
               7
100
AcDbLine
 10
802.530199949951
 20
736.53894236750489
 30
0.0
 11
778.69458364474883
 21
733.73476773828168
 31
0.0
  0
LINE
  5
B2
100
AcDbEntity
  8
0
  6
Continuous
 62
               4
100
AcDbLine
 10
741.65590148548461
 20
723.33592049904269
 30
0.0
 11
740.95485782817866
 21
729.29482457534334
 31
0.0
  0
LINE
  5
B3
100
AcDbEntity
  8
0
  6
Continuous
 62
               4
100
AcDbLine
 10
840.97096942382689
 20
735.01998145414166
 30
0.0
 11
840.26992576652117
 21
740.97888553044231
 31
0.0
  0
LINE
  5
B4
100
AcDbEntity
  8
0
  6
Continuous
 62
               4
100
AcDbLine
 10
840.97096942382689
 20
735.01998145414166
 30
0.0
 11
803.23124360725694
 21
730.58003829120412
 31
0.0
  0
LINE
  5
B5
100
AcDbEntity
  8
0
  6
Continuous
 62
               4
100
AcDbLine
 10
779.39562730205478
 20
727.77586366198034
 30
0.0
 11
741.65590148548461
 21
723.33592049904269
 31
0.0
  0
LINE
  5
B6
100
AcDbEntity
  8
0
  6
Continuous
 62
               6
100
AcDbLine
 10
1025.5568671302062
 20
859.50826362040118
 30
0.0
 11
1045.5568671302062
 21
859.50826362040118
 31
0.0
  0
LINE
  5
B7
100
AcDbEntity
  8
0
  6
Continuous
 62
               6
100
AcDbLine
 10
1025.5568671302062
 20
844.50826362040118
 30
0.0
 11
1045.5568671302062
 21
844.50826362040118
 31
0.0
  0
LINE
  5
B8
100
AcDbEntity
  8
0
  6
Continuous
 62
               6
100
AcDbLine
 10
1045.5568671302062
 20
846.02298224616254
 30
0.0
 11
1044.0421485044449
 21
844.50826362040107
 31
0.0
  0
LINE
  5
B9
100
AcDbEntity
  8
0
  6
Continuous
 62
               6
100
AcDbLine
 10
1045.5568671302062
 20
848.85140937090875
 30
0.0
 11
1041.2137213796987
 21
844.50826362040107
 31
0.0
  0
LINE
  5
BA
100
AcDbEntity
  8
0
  6
Continuous
 62
               6
100
AcDbLine
 10
1045.5568671302062
 20
851.67983649565497
 30
0.0
 11
1038.3852942549524
 21
844.50826362040107
 31
0.0
  0
LINE
  5
BB
100
AcDbEntity
  8
0
  6
Continuous
 62
               6
100
AcDbLine
 10
1045.5568671302062
 20
854.50826362040107
 30
0.0
 11
1035.5568671302062
 21
844.50826362040107
 31
0.0
  0
LINE
  5
BC
100
AcDbEntity
  8
0
  6
Continuous
 62
               6
100
AcDbLine
 10
1045.5568671302062
 20
857.33669074514728
 30
0.0
 11
1032.72844000546
 21
844.50826362040107
 31
0.0
  0
LINE
  5
BD
100
AcDbEntity
  8
0
  6
Continuous
 62
               6
100
AcDbLine
 10
1044.9000128807138
 20
859.50826362040107
 30
0.0
 11
1029.9000128807138
 21
844.50826362040107
 31
0.0
  0
LINE
  5
BE
100
AcDbEntity
  8
0
  6
Continuous
 62
               6
100
AcDbLine
 10
1042.0715857559676
 20
859.50826362040107
 30
0.0
 11
1027.0715857559676
 21
844.50826362040107
 31
0.0
  0
LINE
  5
BF
100
AcDbEntity
  8
0
  6
Continuous
 62
               6
100
AcDbLine
 10
1039.2431586312214
 20
859.50826362040107
 30
0.0
 11
1025.5568671302062
 21
845.82197211938592
 31
0.0
  0
LINE
  5
C0
100
AcDbEntity
  8
0
  6
Continuous
 62
               6
100
AcDbLine
 10
1036.4147315064752
 20
859.50826362040107
 30
0.0
 11
1025.5568671302062
 21
848.65039924413213
 31
0.0
  0
LINE
  5
C1
100
AcDbEntity
  8
0
  6
Continuous
 62
               6
100
AcDbLine
 10
1033.586304381729
 20
859.50826362040107
 30
0.0
 11
1025.5568671302062
 21
851.47882636887834
 31
0.0
  0
LINE
  5
C2
100
AcDbEntity
  8
0
  6
Continuous
 62
               6
100
AcDbLine
 10
1030.7578772569827
 20
859.50826362040107
 30
0.0
 11
1025.5568671302062
 21
854.30725349362444
 31
0.0
  0
LINE
  5
C3
100
AcDbEntity
  8
0
  6
Continuous
 62
               6
100
AcDbLine
 10
1027.9294501322365
 20
859.50826362040107
 30
0.0
 11
1025.5568671302062
 21
857.13568061837066
 31
0.0
  0
LINE
  5
C4
100
AcDbEntity
  8
0
  6
Continuous
 62
               6
100
AcDbLine
 10
1026.8705756291911
 20
844.50826362040107
 30
0.0
 11
1025.5568671302062
 21
845.82197211938592
 31
0.0
  0
LINE
  5
C5
100
AcDbEntity
  8
0
  6
Continuous
 62
               6
100
AcDbLine
 10
1029.6990027539368
 20
844.50826362040107
 30
0.0
 11
1025.5568671302062
 21
848.65039924413213
 31
0.0
  0
LINE
  5
C6
100
AcDbEntity
  8
0
  6
Continuous
 62
               6
100
AcDbLine
 10
1032.5274298786831
 20
844.50826362040107
 30
0.0
 11
1025.5568671302062
 21
851.47882636887834
 31
0.0
  0
LINE
  5
C7
100
AcDbEntity
  8
0
  6
Continuous
 62
               6
100
AcDbLine
 10
1035.3558570034293
 20
844.50826362040107
 30
0.0
 11
1025.5568671302062
 21
854.30725349362444
 31
0.0
  0
LINE
  5
C8
100
AcDbEntity
  8
0
  6
Continuous
 62
               6
100
AcDbLine
 10
1038.1842841281755
 20
844.50826362040107
 30
0.0
 11
1025.5568671302062
 21
857.13568061837066
 31
0.0
  0
LINE
  5
C9
100
AcDbEntity
  8
0
  6
Continuous
 62
               6
100
AcDbLine
 10
1041.0127112529217
 20
844.50826362040107
 30
0.0
 11
1026.0127112529217
 21
859.50826362040107
 31
0.0
  0
LINE
  5
CA
100
AcDbEntity
  8
0
  6
Continuous
 62
               6
100
AcDbLine
 10
1043.8411383776679
 20
844.50826362040107
 30
0.0
 11
1028.8411383776679
 21
859.50826362040107
 31
0.0
  0
LINE
  5
CB
100
AcDbEntity
  8
0
  6
Continuous
 62
               6
100
AcDbLine
 10
1045.5568671302062
 20
845.62096199260918
 30
0.0
 11
1031.6695655024141
 21
859.50826362040107
 31
0.0
  0
LINE
  5
CC
100
AcDbEntity
  8
0
  6
Continuous
 62
               6
100
AcDbLine
 10
1045.5568671302062
 20
848.44938911735539
 30
0.0
 11
1034.4979926271603
 21
859.50826362040107
 31
0.0
  0
LINE
  5
CD
100
AcDbEntity
  8
0
  6
Continuous
 62
               6
100
AcDbLine
 10
1045.5568671302062
 20
851.27781624210161
 30
0.0
 11
1037.3264197519065
 21
859.50826362040107
 31
0.0
  0
LINE
  5
CE
100
AcDbEntity
  8
0
  6
Continuous
 62
               6
100
AcDbLine
 10
1045.5568671302062
 20
854.10624336684782
 30
0.0
 11
1040.1548468766528
 21
859.50826362040107
 31
0.0
  0
LINE
  5
CF
100
AcDbEntity
  8
0
  6
Continuous
 62
               6
100
AcDbLine
 10
1045.5568671302062
 20
856.93467049159403
 30
0.0
 11
1042.983274001399
 21
859.50826362040107
 31
0.0
  0
LINE
  5
D0
100
AcDbEntity
  8
0
  6
Continuous
 62
               4
100
AcDbLine
 10
1045.5568671302062
 20
302.26294306291635
 30
0.0
 11
1045.5568671302062
 21
342.26294306291641
 31
0.0
  0
LINE
  5
D1
100
AcDbEntity
  8
0
  6
Continuous
 62
               4
100
AcDbLine
 10
971.55686713020611
 20
304.26294306291635
 30
0.0
 11
1045.5568671302062
 21
304.26294306291635
 31
0.0
  0
LINE
  5
D2
100
AcDbEntity
  8
0
  6
Continuous
 62
               4
100
AcDbLine
 10
1145.5568671302062
 20
302.26294306291635
 30
0.0
 11
1145.5568671302062
 21
342.26294306291641
 31
0.0
  0
LINE
  5
D3
100
AcDbEntity
  8
0
  6
Continuous
 62
               4
100
AcDbLine
 10
1045.5568671302062
 20
304.26294306291635
 30
0.0
 11
1145.5568671302062
 21
304.26294306291635
 31
0.0
  0
LINE
  5
D4
100
AcDbEntity
  8
0
  6
Continuous
 62
               4
100
AcDbLine
 10
971.55686713020611
 20
276.26294306291635
 30
0.0
 11
1095.5568671302062
 21
276.26294306291635
 31
0.0
  0
LINE
  5
D5
100
AcDbEntity
  8
0
  6
Continuous
 62
               4
100
AcDbLine
 10
1045.5568671302062
 20
416.26294306291641
 30
0.0
 11
1095.5568671302062
 21
416.26294306291641
 31
0.0
  0
LINE
  5
D6
100
AcDbEntity
  8
0
  6
Continuous
 62
               4
100
AcDbLine
 10
1095.5568671302062
 20
416.26294306291641
 30
0.0
 11
1145.5568671302062
 21
416.26294306291641
 31
0.0
  0
LINE
  5
D7
100
AcDbEntity
  8
0
  6
Continuous
 62
               4
100
AcDbLine
 10
1145.5568671302062
 20
416.26294306291641
 30
0.0
 11
1174.5568671302067
 21
416.26294306291641
 31
0.0
  0
LINE
  5
D8
100
AcDbEntity
  8
0
  6
Continuous
 62
               4
100
AcDbLine
 10
1145.5568671302062
 20
444.26294306291641
 30
0.0
 11
1165.5568671302067
 21
444.26294306291641
 31
0.0
  0
LINE
  5
D9
100
AcDbEntity
  8
0
  6
Continuous
 62
               4
100
AcDbLine
 10
1165.5568671302067
 20
444.26294306291641
 30
0.0
 11
1171.5568671302067
 21
444.26294306291641
 31
0.0
  0
LINE
  5
DA
100
AcDbEntity
  8
0
  6
Continuous
 62
               7
100
AcDbLine
 10
1165.5568671302067
 20
500.74672022541438
 30
0.0
 11
1161.0730899677087
 21
496.26294306291641
 31
0.0
  0
LINE
  5
DB
100
AcDbEntity
  8
0
  6
Continuous
 62
               7
100
AcDbLine
 10
1165.5568671302067
 20
507.81778803727991
 30
0.0
 11
1154.0020221558425
 21
496.26294306291641
 31
0.0
  0
LINE
  5
DC
100
AcDbEntity
  8
0
  6
Continuous
 62
               7
100
AcDbLine
 10
1165.5568671302067
 20
514.88885584914522
 30
0.0
 11
1146.9309543439772
 21
496.26294306291641
 31
0.0
  0
LINE
  5
DD
100
AcDbEntity
  8
0
  6
Continuous
 62
               7
100
AcDbLine
 10
1165.5568671302067
 20
521.95992366101075
 30
0.0
 11
1145.5568671302062
 21
501.95992366101075
 31
0.0
  0
LINE
  5
DE
100
AcDbEntity
  8
0
  6
Continuous
 62
               7
100
AcDbLine
 10
1165.5568671302067
 20
529.03099147287628
 30
0.0
 11
1145.5568671302062
 21
509.03099147287628
 31
0.0
  0
LINE
  5
DF
100
AcDbEntity
  8
0
  6
Continuous
 62
               7
100
AcDbLine
 10
1165.5568671302067
 20
536.10205928474181
 30
0.0
 11
1145.5568671302062
 21
516.10205928474181
 31
0.0
  0
LINE
  5
E0
100
AcDbEntity
  8
0
  6
Continuous
 62
               7
100
AcDbLine
 10
1165.5568671302067
 20
543.17312709660712
 30
0.0
 11
1145.5568671302062
 21
523.17312709660712
 31
0.0
  0
LINE
  5
E1
100
AcDbEntity
  8
0
  6
Continuous
 62
               7
100
AcDbLine
 10
1165.5568671302067
 20
550.24419490847265
 30
0.0
 11
1145.5568671302062
 21
530.24419490847265
 31
0.0
  0
LINE
  5
E2
100
AcDbEntity
  8
0
  6
Continuous
 62
               7
100
AcDbLine
 10
1165.5568671302067
 20
557.31526272033818
 30
0.0
 11
1145.5568671302062
 21
537.31526272033818
 31
0.0
  0
LINE
  5
E3
100
AcDbEntity
  8
0
  6
Continuous
 62
               7
100
AcDbLine
 10
1165.5568671302067
 20
564.38633053220371
 30
0.0
 11
1145.5568671302062
 21
544.38633053220371
 31
0.0
  0
LINE
  5
E4
100
AcDbEntity
  8
0
  6
Continuous
 62
               7
100
AcDbLine
 10
1165.5568671302067
 20
571.45739834406902
 30
0.0
 11
1145.5568671302062
 21
551.45739834406902
 31
0.0
  0
LINE
  5
E5
100
AcDbEntity
  8
0
  6
Continuous
 62
               7
100
AcDbLine
 10
1165.5568671302067
 20
578.52846615593455
 30
0.0
 11
1145.5568671302062
 21
558.52846615593455
 31
0.0
  0
LINE
  5
E6
100
AcDbEntity
  8
0
  6
Continuous
 62
               7
100
AcDbLine
 10
1165.5568671302067
 20
585.59953396780008
 30
0.0
 11
1145.5568671302062
 21
565.59953396780008
 31
0.0
  0
LINE
  5
E7
100
AcDbEntity
  8
0
  6
Continuous
 62
               7
100
AcDbLine
 10
1165.5568671302067
 20
592.6706017796655
 30
0.0
 11
1145.5568671302062
 21
572.67060177966562
 31
0.0
  0
LINE
  5
E8
100
AcDbEntity
  8
0
  6
Continuous
 62
               7
100
AcDbLine
 10
1165.5568671302067
 20
599.74166959153104
 30
0.0
 11
1145.5568671302062
 21
579.74166959153092
 31
0.0
  0
LINE
  5
E9
100
AcDbEntity
  8
0
  6
Continuous
 62
               7
100
AcDbLine
 10
1165.5568671302067
 20
606.81273740339645
 30
0.0
 11
1145.5568671302062
 21
586.81273740339645
 31
0.0
  0
LINE
  5
EA
100
AcDbEntity
  8
0
  6
Continuous
 62
               7
100
AcDbLine
 10
1165.5568671302067
 20
613.88380521526187
 30
0.0
 11
1145.5568671302062
 21
593.88380521526187
 31
0.0
  0
LINE
  5
EB
100
AcDbEntity
  8
0
  6
Continuous
 62
               7
100
AcDbLine
 10
1165.5568671302067
 20
620.95487302712741
 30
0.0
 11
1145.5568671302062
 21
600.95487302712741
 31
0.0
  0
LINE
  5
EC
100
AcDbEntity
  8
0
  6
Continuous
 62
               7
100
AcDbLine
 10
1165.5568671302067
 20
628.02594083899294
 30
0.0
 11
1145.5568671302062
 21
608.02594083899294
 31
0.0
  0
LINE
  5
ED
100
AcDbEntity
  8
0
  6
Continuous
 62
               7
100
AcDbLine
 10
1165.5568671302067
 20
635.09700865085836
 30
0.0
 11
1145.5568671302062
 21
615.09700865085836
 31
0.0
  0
LINE
  5
EE
100
AcDbEntity
  8
0
  6
Continuous
 62
               7
100
AcDbLine
 10
1165.5568671302067
 20
642.16807646272377
 30
0.0
 11
1145.5568671302062
 21
622.16807646272377
 31
0.0
  0
LINE
  5
EF
100
AcDbEntity
  8
0
  6
Continuous
 62
               7
100
AcDbLine
 10
1165.5568671302067
 20
649.23914427458931
 30
0.0
 11
1145.5568671302062
 21
629.23914427458931
 31
0.0
  0
LINE
  5
F0
100
AcDbEntity
  8
0
  6
Continuous
 62
               7
100
AcDbLine
 10
1165.5568671302067
 20
656.31021208645484
 30
0.0
 11
1145.5568671302062
 21
636.31021208645484
 31
0.0
  0
LINE
  5
F1
100
AcDbEntity
  8
0
  6
Continuous
 62
               7
100
AcDbLine
 10
1165.5568671302067
 20
663.38127989832026
 30
0.0
 11
1145.5568671302062
 21
643.38127989832026
 31
0.0
  0
LINE
  5
F2
100
AcDbEntity
  8
0
  6
Continuous
 62
               7
100
AcDbLine
 10
1165.5568671302067
 20
670.45234771018568
 30
0.0
 11
1145.5568671302062
 21
650.45234771018568
 31
0.0
  0
LINE
  5
F3
100
AcDbEntity
  8
0
  6
Continuous
 62
               7
100
AcDbLine
 10
1165.5568671302067
 20
677.52341552205121
 30
0.0
 11
1145.5568671302062
 21
657.52341552205121
 31
0.0
  0
LINE
  5
F4
100
AcDbEntity
  8
0
  6
Continuous
 62
               7
100
AcDbLine
 10
1165.5568671302067
 20
684.59448333391674
 30
0.0
 11
1145.5568671302062
 21
664.59448333391674
 31
0.0
  0
LINE
  5
F5
100
AcDbEntity
  8
0
  6
Continuous
 62
               7
100
AcDbLine
 10
1165.5568671302067
 20
691.66555114578216
 30
0.0
 11
1145.5568671302062
 21
671.66555114578216
 31
0.0
  0
LINE
  5
F6
100
AcDbEntity
  8
0
  6
Continuous
 62
               7
100
AcDbLine
 10
1165.5568671302067
 20
698.73661895764758
 30
0.0
 11
1145.5568671302062
 21
678.73661895764758
 31
0.0
  0
LINE
  5
F7
100
AcDbEntity
  8
0
  6
Continuous
 62
               7
100
AcDbLine
 10
1165.5568671302067
 20
705.80768676951311
 30
0.0
 11
1145.5568671302062
 21
685.80768676951311
 31
0.0
  0
LINE
  5
F8
100
AcDbEntity
  8
0
  6
Continuous
 62
               7
100
AcDbLine
 10
1165.5568671302067
 20
712.87875458137864
 30
0.0
 11
1145.5568671302062
 21
692.87875458137864
 31
0.0
  0
LINE
  5
F9
100
AcDbEntity
  8
0
  6
Continuous
 62
               7
100
AcDbLine
 10
1165.5568671302067
 20
719.94982239324406
 30
0.0
 11
1145.5568671302062
 21
699.94982239324406
 31
0.0
  0
LINE
  5
FA
100
AcDbEntity
  8
0
  6
Continuous
 62
               7
100
AcDbLine
 10
1165.5568671302067
 20
727.02089020510948
 30
0.0
 11
1145.5568671302062
 21
707.02089020510948
 31
0.0
  0
LINE
  5
FB
100
AcDbEntity
  8
0
  6
Continuous
 62
               7
100
AcDbLine
 10
1165.5568671302067
 20
734.09195801697501
 30
0.0
 11
1145.5568671302062
 21
714.09195801697501
 31
0.0
  0
LINE
  5
FC
100
AcDbEntity
  8
0
  6
Continuous
 62
               7
100
AcDbLine
 10
1165.5568671302067
 20
741.16302582884055
 30
0.0
 11
1145.5568671302062
 21
721.16302582884055
 31
0.0
  0
LINE
  5
FD
100
AcDbEntity
  8
0
  6
Continuous
 62
               7
100
AcDbLine
 10
1165.5568671302067
 20
748.23409364070596
 30
0.0
 11
1145.5568671302062
 21
728.23409364070596
 31
0.0
  0
LINE
  5
FE
100
AcDbEntity
  8
0
  6
Continuous
 62
               7
100
AcDbLine
 10
1165.5568671302067
 20
755.30516145257138
 30
0.0
 11
1145.5568671302062
 21
735.30516145257138
 31
0.0
  0
LINE
  5
FF
100
AcDbEntity
  8
0
  6
Continuous
 62
               7
100
AcDbLine
 10
1165.5568671302067
 20
762.37622926443692
 30
0.0
 11
1145.5568671302062
 21
742.37622926443692
 31
0.0
  0
LINE
  5
100
100
AcDbEntity
  8
0
  6
Continuous
 62
               7
100
AcDbLine
 10
1165.5568671302067
 20
769.44729707630245
 30
0.0
 11
1145.5568671302062
 21
749.44729707630245
 31
0.0
  0
LINE
  5
101
100
AcDbEntity
  8
0
  6
Continuous
 62
               7
100
AcDbLine
 10
1165.5568671302067
 20
776.51836488816787
 30
0.0
 11
1145.5568671302062
 21
756.51836488816787
 31
0.0
  0
LINE
  5
102
100
AcDbEntity
  8
0
  6
Continuous
 62
               7
100
AcDbLine
 10
1165.5568671302067
 20
783.58943270003329
 30
0.0
 11
1145.5568671302062
 21
763.58943270003329
 31
0.0
  0
LINE
  5
103
100
AcDbEntity
  8
0
  6
Continuous
 62
               7
100
AcDbLine
 10
1165.5568671302067
 20
790.66050051189882
 30
0.0
 11
1145.5568671302062
 21
770.66050051189882
 31
0.0
  0
LINE
  5
104
100
AcDbEntity
  8
0
  6
Continuous
 62
               7
100
AcDbLine
 10
1165.5568671302067
 20
797.73156832376435
 30
0.0
 11
1145.5568671302062
 21
777.73156832376435
 31
0.0
  0
LINE
  5
105
100
AcDbEntity
  8
0
  6
Continuous
 62
               7
100
AcDbLine
 10
1165.5568671302067
 20
804.80263613562977
 30
0.0
 11
1145.5568671302062
 21
784.80263613562977
 31
0.0
  0
LINE
  5
106
100
AcDbEntity
  8
0
  6
Continuous
 62
               7
100
AcDbLine
 10
1165.5568671302067
 20
811.87370394749519
 30
0.0
 11
1145.5568671302062
 21
791.87370394749519
 31
0.0
  0
LINE
  5
107
100
AcDbEntity
  8
0
  6
Continuous
 62
               7
100
AcDbLine
 10
1165.5568671302067
 20
818.94477175936072
 30
0.0
 11
1145.5568671302062
 21
798.94477175936072
 31
0.0
  0
LINE
  5
108
100
AcDbEntity
  8
0
  6
Continuous
 62
               7
100
AcDbLine
 10
1165.5568671302067
 20
826.01583957122625
 30
0.0
 11
1145.5568671302062
 21
806.01583957122625
 31
0.0
  0
LINE
  5
109
100
AcDbEntity
  8
0
  6
Continuous
 62
               7
100
AcDbLine
 10
1165.5568671302067
 20
833.08690738309167
 30
0.0
 11
1145.5568671302062
 21
813.08690738309167
 31
0.0
  0
LINE
  5
10A
100
AcDbEntity
  8
0
  6
Continuous
 62
               7
100
AcDbLine
 10
1165.5568671302067
 20
840.15797519495709
 30
0.0
 11
1145.5568671302062
 21
820.15797519495709
 31
0.0
  0
LINE
  5
10B
100
AcDbEntity
  8
0
  6
Continuous
 62
               7
100
AcDbLine
 10
1165.5568671302067
 20
847.22904300682262
 30
0.0
 11
1145.5568671302062
 21
827.22904300682262
 31
0.0
  0
LINE
  5
10C
100
AcDbEntity
  8
0
  6
Continuous
 62
               7
100
AcDbLine
 10
1165.5568671302067
 20
854.30011081868815
 30
0.0
 11
1145.5568671302062
 21
834.30011081868815
 31
0.0
  0
LINE
  5
10D
100
AcDbEntity
  8
0
  6
Continuous
 62
               7
100
AcDbLine
 10
1165.5568671302067
 20
861.37117863055357
 30
0.0
 11
1145.5568671302062
 21
841.37117863055357
 31
0.0
  0
LINE
  5
10E
100
AcDbEntity
  8
0
  6
Continuous
 62
               7
100
AcDbLine
 10
1165.5568671302067
 20
868.44224644241899
 30
0.0
 11
1145.5568671302062
 21
848.44224644241899
 31
0.0
  0
LINE
  5
10F
100
AcDbEntity
  8
0
  6
Continuous
 62
               7
100
AcDbLine
 10
1165.5568671302067
 20
875.51331425428452
 30
0.0
 11
1145.5568671302062
 21
855.51331425428452
 31
0.0
  0
LINE
  5
110
100
AcDbEntity
  8
0
  6
Continuous
 62
               7
100
AcDbLine
 10
1165.5568671302067
 20
882.58438206615006
 30
0.0
 11
1145.5568671302062
 21
862.58438206615006
 31
0.0
  0
LINE
  5
111
100
AcDbEntity
  8
0
  6
Continuous
 62
               7
100
AcDbLine
 10
1165.5568671302067
 20
889.65544987801559
 30
0.0
 11
1145.5568671302062
 21
869.65544987801559
 31
0.0
  0
LINE
  5
112
100
AcDbEntity
  8
0
  6
Continuous
 62
               7
100
AcDbLine
 10
1165.5568671302067
 20
896.72651768988089
 30
0.0
 11
1145.5568671302062
 21
876.72651768988089
 31
0.0
  0
LINE
  5
113
100
AcDbEntity
  8
0
  6
Continuous
 62
               7
100
AcDbLine
 10
1165.5568671302067
 20
903.79758550174643
 30
0.0
 11
1145.5568671302062
 21
883.79758550174643
 31
0.0
  0
LINE
  5
114
100
AcDbEntity
  8
0
  6
Continuous
 62
               7
100
AcDbLine
 10
1160.1713147456035
 20
905.48310092900988
 30
0.0
 11
1145.5568671302062
 21
890.86865331361196
 31
0.0
  0
LINE
  5
115
100
AcDbEntity
  8
0
  6
Continuous
 62
               7
100
AcDbLine
 10
1152.1574438075886
 20
904.54029780285987
 30
0.0
 11
1145.5568671302062
 21
897.93972112547749
 31
0.0
  0
LINE
  5
116
100
AcDbEntity
  8
0
  6
Continuous
 62
               7
100
AcDbLine
 10
1151.6701533317264
 20
496.26294306291641
 30
0.0
 11
1145.5568671302062
 21
502.37622926443692
 31
0.0
  0
LINE
  5
117
100
AcDbEntity
  8
0
  6
Continuous
 62
               7
100
AcDbLine
 10
1158.7412211435926
 20
496.26294306291641
 30
0.0
 11
1145.5568671302062
 21
509.44729707630245
 31
0.0
  0
LINE
  5
118
100
AcDbEntity
  8
0
  6
Continuous
 62
               7
100
AcDbLine
 10
1165.5568671302067
 20
496.51836488816798
 30
0.0
 11
1145.5568671302062
 21
516.51836488816798
 31
0.0
  0
LINE
  5
119
100
AcDbEntity
  8
0
  6
Continuous
 62
               7
100
AcDbLine
 10
1165.5568671302067
 20
503.58943270003351
 30
0.0
 11
1145.5568671302062
 21
523.58943270003351
 31
0.0
  0
LINE
  5
11A
100
AcDbEntity
  8
0
  6
Continuous
 62
               7
100
AcDbLine
 10
1165.5568671302067
 20
510.66050051189882
 30
0.0
 11
1145.5568671302062
 21
530.66050051189882
 31
0.0
  0
LINE
  5
11B
100
AcDbEntity
  8
0
  6
Continuous
 62
               7
100
AcDbLine
 10
1165.5568671302067
 20
517.73156832376435
 30
0.0
 11
1145.5568671302062
 21
537.73156832376435
 31
0.0
  0
LINE
  5
11C
100
AcDbEntity
  8
0
  6
Continuous
 62
               7
100
AcDbLine
 10
1165.5568671302067
 20
524.80263613562988
 30
0.0
 11
1145.5568671302062
 21
544.80263613562988
 31
0.0
  0
LINE
  5
11D
100
AcDbEntity
  8
0
  6
Continuous
 62
               7
100
AcDbLine
 10
1165.5568671302067
 20
531.87370394749541
 30
0.0
 11
1145.5568671302062
 21
551.87370394749541
 31
0.0
  0
LINE
  5
11E
100
AcDbEntity
  8
0
  6
Continuous
 62
               7
100
AcDbLine
 10
1165.5568671302067
 20
538.94477175936072
 30
0.0
 11
1145.5568671302062
 21
558.94477175936072
 31
0.0
  0
LINE
  5
11F
100
AcDbEntity
  8
0
  6
Continuous
 62
               7
100
AcDbLine
 10
1165.5568671302067
 20
546.01583957122625
 30
0.0
 11
1145.5568671302062
 21
566.01583957122625
 31
0.0
  0
LINE
  5
120
100
AcDbEntity
  8
0
  6
Continuous
 62
               7
100
AcDbLine
 10
1165.5568671302067
 20
553.08690738309178
 30
0.0
 11
1145.5568671302062
 21
573.08690738309167
 31
0.0
  0
LINE
  5
121
100
AcDbEntity
  8
0
  6
Continuous
 62
               7
100
AcDbLine
 10
1165.5568671302067
 20
560.15797519495732
 30
0.0
 11
1145.5568671302062
 21
580.15797519495732
 31
0.0
  0
LINE
  5
122
100
AcDbEntity
  8
0
  6
Continuous
 62
               7
100
AcDbLine
 10
1165.5568671302067
 20
567.22904300682262
 30
0.0
 11
1145.5568671302062
 21
587.22904300682262
 31
0.0
  0
LINE
  5
123
100
AcDbEntity
  8
0
  6
Continuous
 62
               7
100
AcDbLine
 10
1165.5568671302067
 20
574.30011081868815
 30
0.0
 11
1145.5568671302062
 21
594.30011081868815
 31
0.0
  0
LINE
  5
124
100
AcDbEntity
  8
0
  6
Continuous
 62
               7
100
AcDbLine
 10
1165.5568671302067
 20
581.37117863055357
 30
0.0
 11
1145.5568671302062
 21
601.37117863055357
 31
0.0
  0
LINE
  5
125
100
AcDbEntity
  8
0
  6
Continuous
 62
               7
100
AcDbLine
 10
1165.5568671302067
 20
588.4422464424191
 30
0.0
 11
1145.5568671302062
 21
608.4422464424191
 31
0.0
  0
LINE
  5
126
100
AcDbEntity
  8
0
  6
Continuous
 62
               7
100
AcDbLine
 10
1165.5568671302067
 20
595.51331425428452
 30
0.0
 11
1145.5568671302062
 21
615.51331425428452
 31
0.0
  0
LINE
  5
127
100
AcDbEntity
  8
0
  6
Continuous
 62
               7
100
AcDbLine
 10
1165.5568671302067
 20
602.58438206615006
 30
0.0
 11
1145.5568671302062
 21
622.58438206615006
 31
0.0
  0
LINE
  5
128
100
AcDbEntity
  8
0
  6
Continuous
 62
               7
100
AcDbLine
 10
1165.5568671302067
 20
609.65544987801547
 30
0.0
 11
1145.5568671302062
 21
629.65544987801547
 31
0.0
  0
LINE
  5
129
100
AcDbEntity
  8
0
  6
Continuous
 62
               7
100
AcDbLine
 10
1165.5568671302067
 20
616.72651768988101
 30
0.0
 11
1145.5568671302062
 21
636.72651768988101
 31
0.0
  0
LINE
  5
12A
100
AcDbEntity
  8
0
  6
Continuous
 62
               7
100
AcDbLine
 10
1165.5568671302067
 20
623.79758550174643
 30
0.0
 11
1145.5568671302062
 21
643.79758550174643
 31
0.0
  0
LINE
  5
12B
100
AcDbEntity
  8
0
  6
Continuous
 62
               7
100
AcDbLine
 10
1165.5568671302067
 20
630.86865331361196
 30
0.0
 11
1145.5568671302062
 21
650.86865331361196
 31
0.0
  0
LINE
  5
12C
100
AcDbEntity
  8
0
  6
Continuous
 62
               7
100
AcDbLine
 10
1165.5568671302067
 20
637.93972112547738
 30
0.0
 11
1145.5568671302062
 21
657.93972112547738
 31
0.0
  0
LINE
  5
12D
100
AcDbEntity
  8
0
  6
Continuous
 62
               7
100
AcDbLine
 10
1165.5568671302067
 20
645.01078893734291
 30
0.0
 11
1145.5568671302062
 21
665.01078893734291
 31
0.0
  0
LINE
  5
12E
100
AcDbEntity
  8
0
  6
Continuous
 62
               7
100
AcDbLine
 10
1165.5568671302067
 20
652.08185674920833
 30
0.0
 11
1145.5568671302062
 21
672.08185674920833
 31
0.0
  0
LINE
  5
12F
100
AcDbEntity
  8
0
  6
Continuous
 62
               7
100
AcDbLine
 10
1165.5568671302067
 20
659.15292456107386
 30
0.0
 11
1145.5568671302062
 21
679.15292456107386
 31
0.0
  0
LINE
  5
130
100
AcDbEntity
  8
0
  6
Continuous
 62
               7
100
AcDbLine
 10
1165.5568671302067
 20
666.22399237293928
 30
0.0
 11
1145.5568671302062
 21
686.22399237293928
 31
0.0
  0
LINE
  5
131
100
AcDbEntity
  8
0
  6
Continuous
 62
               7
100
AcDbLine
 10
1165.5568671302067
 20
673.29506018480481
 30
0.0
 11
1145.5568671302062
 21
693.29506018480481
 31
0.0
  0
LINE
  5
132
100
AcDbEntity
  8
0
  6
Continuous
 62
               7
100
AcDbLine
 10
1165.5568671302067
 20
680.36612799667023
 30
0.0
 11
1145.5568671302062
 21
700.36612799667023
 31
0.0
  0
LINE
  5
133
100
AcDbEntity
  8
0
  6
Continuous
 62
               7
100
AcDbLine
 10
1165.5568671302067
 20
687.43719580853576
 30
0.0
 11
1145.5568671302062
 21
707.43719580853576
 31
0.0
  0
LINE
  5
134
100
AcDbEntity
  8
0
  6
Continuous
 62
               7
100
AcDbLine
 10
1165.5568671302067
 20
694.50826362040118
 30
0.0
 11
1145.5568671302062
 21
714.50826362040118
 31
0.0
  0
LINE
  5
135
100
AcDbEntity
  8
0
  6
Continuous
 62
               7
100
AcDbLine
 10
1165.5568671302067
 20
701.57933143226671
 30
0.0
 11
1145.5568671302062
 21
721.57933143226671
 31
0.0
  0
LINE
  5
136
100
AcDbEntity
  8
0
  6
Continuous
 62
               7
100
AcDbLine
 10
1165.5568671302067
 20
708.65039924413213
 30
0.0
 11
1145.5568671302062
 21
728.65039924413213
 31
0.0
  0
LINE
  5
137
100
AcDbEntity
  8
0
  6
Continuous
 62
               7
100
AcDbLine
 10
1165.5568671302067
 20
715.72146705599766
 30
0.0
 11
1145.5568671302062
 21
735.72146705599766
 31
0.0
  0
LINE
  5
138
100
AcDbEntity
  8
0
  6
Continuous
 62
               7
100
AcDbLine
 10
1165.5568671302067
 20
722.79253486786308
 30
0.0
 11
1145.5568671302062
 21
742.79253486786308
 31
0.0
  0
LINE
  5
139
100
AcDbEntity
  8
0
  6
Continuous
 62
               7
100
AcDbLine
 10
1165.5568671302067
 20
729.86360267972861
 30
0.0
 11
1145.5568671302062
 21
749.86360267972861
 31
0.0
  0
LINE
  5
13A
100
AcDbEntity
  8
0
  6
Continuous
 62
               7
100
AcDbLine
 10
1165.5568671302067
 20
736.93467049159403
 30
0.0
 11
1145.5568671302062
 21
756.93467049159403
 31
0.0
  0
LINE
  5
13B
100
AcDbEntity
  8
0
  6
Continuous
 62
               7
100
AcDbLine
 10
1165.5568671302067
 20
744.00573830345957
 30
0.0
 11
1145.5568671302062
 21
764.00573830345957
 31
0.0
  0
LINE
  5
13C
100
AcDbEntity
  8
0
  6
Continuous
 62
               7
100
AcDbLine
 10
1165.5568671302067
 20
751.07680611532498
 30
0.0
 11
1145.5568671302062
 21
771.07680611532498
 31
0.0
  0
LINE
  5
13D
100
AcDbEntity
  8
0
  6
Continuous
 62
               7
100
AcDbLine
 10
1165.5568671302067
 20
758.14787392719052
 30
0.0
 11
1145.5568671302062
 21
778.14787392719052
 31
0.0
  0
LINE
  5
13E
100
AcDbEntity
  8
0
  6
Continuous
 62
               7
100
AcDbLine
 10
1165.5568671302067
 20
765.21894173905594
 30
0.0
 11
1145.5568671302062
 21
785.21894173905594
 31
0.0
  0
LINE
  5
13F
100
AcDbEntity
  8
0
  6
Continuous
 62
               7
100
AcDbLine
 10
1165.5568671302067
 20
772.29000955092147
 30
0.0
 11
1145.5568671302062
 21
792.29000955092147
 31
0.0
  0
LINE
  5
140
100
AcDbEntity
  8
0
  6
Continuous
 62
               7
100
AcDbLine
 10
1165.5568671302067
 20
779.36107736278689
 30
0.0
 11
1145.5568671302062
 21
799.36107736278689
 31
0.0
  0
LINE
  5
141
100
AcDbEntity
  8
0
  6
Continuous
 62
               7
100
AcDbLine
 10
1165.5568671302067
 20
786.43214517465242
 30
0.0
 11
1145.5568671302062
 21
806.43214517465242
 31
0.0
  0
LINE
  5
142
100
AcDbEntity
  8
0
  6
Continuous
 62
               7
100
AcDbLine
 10
1165.5568671302067
 20
793.50321298651784
 30
0.0
 11
1145.5568671302062
 21
813.50321298651784
 31
0.0
  0
LINE
  5
143
100
AcDbEntity
  8
0
  6
Continuous
 62
               7
100
AcDbLine
 10
1165.5568671302067
 20
800.57428079838337
 30
0.0
 11
1145.5568671302062
 21
820.57428079838337
 31
0.0
  0
LINE
  5
144
100
AcDbEntity
  8
0
  6
Continuous
 62
               7
100
AcDbLine
 10
1165.5568671302067
 20
807.64534861024879
 30
0.0
 11
1145.5568671302062
 21
827.64534861024879
 31
0.0
  0
LINE
  5
145
100
AcDbEntity
  8
0
  6
Continuous
 62
               7
100
AcDbLine
 10
1165.5568671302067
 20
814.71641642211432
 30
0.0
 11
1145.5568671302062
 21
834.71641642211432
 31
0.0
  0
LINE
  5
146
100
AcDbEntity
  8
0
  6
Continuous
 62
               7
100
AcDbLine
 10
1165.5568671302067
 20
821.78748423397974
 30
0.0
 11
1145.5568671302062
 21
841.78748423397974
 31
0.0
  0
LINE
  5
147
100
AcDbEntity
  8
0
  6
Continuous
 62
               7
100
AcDbLine
 10
1165.5568671302067
 20
828.85855204584527
 30
0.0
 11
1145.5568671302062
 21
848.85855204584527
 31
0.0
  0
LINE
  5
148
100
AcDbEntity
  8
0
  6
Continuous
 62
               7
100
AcDbLine
 10
1165.5568671302067
 20
835.92961985771069
 30
0.0
 11
1145.5568671302062
 21
855.92961985771069
 31
0.0
  0
LINE
  5
149
100
AcDbEntity
  8
0
  6
Continuous
 62
               7
100
AcDbLine
 10
1165.5568671302067
 20
843.00068766957611
 30
0.0
 11
1145.5568671302062
 21
863.00068766957611
 31
0.0
  0
LINE
  5
14A
100
AcDbEntity
  8
0
  6
Continuous
 62
               7
100
AcDbLine
 10
1165.5568671302067
 20
850.07175548144164
 30
0.0
 11
1145.5568671302062
 21
870.07175548144164
 31
0.0
  0
LINE
  5
14B
100
AcDbEntity
  8
0
  6
Continuous
 62
               7
100
AcDbLine
 10
1165.5568671302067
 20
857.14282329330717
 30
0.0
 11
1145.5568671302062
 21
877.14282329330717
 31
0.0
  0
LINE
  5
14C
100
AcDbEntity
  8
0
  6
Continuous
 62
               7
100
AcDbLine
 10
1165.5568671302067
 20
864.21389110517259
 30
0.0
 11
1145.5568671302062
 21
884.21389110517271
 31
0.0
  0
LINE
  5
14D
100
AcDbEntity
  8
0
  6
Continuous
 62
               7
100
AcDbLine
 10
1165.5568671302067
 20
871.28495891703801
 30
0.0
 11
1145.5568671302062
 21
891.28495891703801
 31
0.0
  0
LINE
  5
14E
100
AcDbEntity
  8
0
  6
Continuous
 62
               7
100
AcDbLine
 10
1165.5568671302067
 20
878.35602672890354
 30
0.0
 11
1145.5568671302062
 21
898.35602672890354
 31
0.0
  0
LINE
  5
14F
100
AcDbEntity
  8
0
  6
Continuous
 62
               7
100
AcDbLine
 10
1165.5568671302067
 20
885.42709454076908
 30
0.0
 11
1147.0451114088514
 21
903.93885026212365
 31
0.0
  0
LINE
  5
150
100
AcDbEntity
  8
0
  6
Continuous
 62
               7
100
AcDbLine
 10
1165.5568671302067
 20
892.49816235263461
 30
0.0
 11
1153.3718599800604
 21
904.68316950277995
 31
0.0
  0
LINE
  5
151
100
AcDbEntity
  8
0
  6
Continuous
 62
               7
100
AcDbLine
 10
1165.5568671302067
 20
899.56923016449991
 30
0.0
 11
1159.6986085512694
 21
905.42748874343624
 31
0.0
  0
LINE
  5
152
100
AcDbEntity
  8
0
  6
Continuous
 62
               7
100
AcDbLine
 10
1145.5568671302062
 20
889.67839414165428
 30
0.0
 11
1140.289274688213
 21
883.00611919519929
 31
0.0
  0
LINE
  5
153
100
AcDbEntity
  8
0
  6
Continuous
 62
               7
100
AcDbLine
 10
1145.5568671302062
 20
897.74753320018135
 30
0.0
 11
1133.2666388868925
 21
882.17993132188462
 31
0.0
  0
LINE
  5
154
100
AcDbEntity
  8
0
  6
Continuous
 62
               7
100
AcDbLine
 10
1143.7702044822208
 20
903.55356922725809
 30
0.0
 11
1126.2440030855719
 21
881.35374344856996
 31
0.0
  0
LINE
  5
155
100
AcDbEntity
  8
0
  6
Continuous
 62
               7
100
AcDbLine
 10
1136.7475686809003
 20
902.72738135394343
 30
0.0
 11
1119.2213672842518
 21
880.52755557525506
 31
0.0
  0
LINE
  5
156
100
AcDbEntity
  8
0
  6
Continuous
 62
               7
100
AcDbLine
 10
1129.7249328795797
 20
901.90119348062854
 30
0.0
 11
1112.1987314829312
 21
879.7013677019404
 31
0.0
  0
LINE
  5
157
100
AcDbEntity
  8
0
  6
Continuous
 62
               7
100
AcDbLine
 10
1122.7022970782596
 20
901.07500560731387
 30
0.0
 11
1105.1760956816106
 21
878.87517982862551
 31
0.0
  0
LINE
  5
158
100
AcDbEntity
  8
0
  6
Continuous
 62
               7
100
AcDbLine
 10
1115.679661276939
 20
900.2488177339992
 30
0.0
 11
1098.1534598802905
 21
878.04899195531084
 31
0.0
  0
LINE
  5
159
100
AcDbEntity
  8
0
  6
Continuous
 62
               7
100
AcDbLine
 10
1108.6570254756184
 20
899.42262986068431
 30
0.0
 11
1091.1308240789699
 21
877.22280408199617
 31
0.0
  0
LINE
  5
15A
100
AcDbEntity
  8
0
  6
Continuous
 62
               7
100
AcDbLine
 10
1101.6343896742983
 20
898.59644198736964
 30
0.0
 11
1084.1081882776493
 21
876.39661620868128
 31
0.0
  0
LINE
  5
15B
100
AcDbEntity
  8
0
  6
Continuous
 62
               7
100
AcDbLine
 10
1094.6117538729777
 20
897.77025411405498
 30
0.0
 11
1077.0855524763292
 21
875.57042833536661
 31
0.0
  0
LINE
  5
15C
100
AcDbEntity
  8
0
  6
Continuous
 62
               7
100
AcDbLine
 10
1087.5891180716571
 20
896.94406624074009
 30
0.0
 11
1070.0629166750086
 21
874.74424046205195
 31
0.0
  0
LINE
  5
15D
100
AcDbEntity
  8
0
  6
Continuous
 62
               7
100
AcDbLine
 10
1080.5664822703366
 20
896.11787836742542
 30
0.0
 11
1063.0402808736881
 21
873.91805258873705
 31
0.0
  0
LINE
  5
15E
100
AcDbEntity
  8
0
  6
Continuous
 62
               7
100
AcDbLine
 10
1073.5438464690164
 20
895.29169049411075
 30
0.0
 11
1056.0176450723675
 21
873.09186471542239
 31
0.0
  0
LINE
  5
15F
100
AcDbEntity
  8
0
  6
Continuous
 62
               7
100
AcDbLine
 10
1066.5212106676959
 20
894.46550262079586
 30
0.0
 11
1048.9950092710474
 21
872.26567684210772
 31
0.0
  0
LINE
  5
160
100
AcDbEntity
  8
0
  6
Continuous
 62
               7
100
AcDbLine
 10
1059.4985748663753
 20
893.63931474748119
 30
0.0
 11
1041.9723734697268
 21
871.43948896879283
 31
0.0
  0
LINE
  5
161
100
AcDbEntity
  8
0
  6
Continuous
 62
               7
100
AcDbLine
 10
1052.4759390650552
 20
892.81312687416653
 30
0.0
 11
1034.9497376684062
 21
870.61330109547816
 31
0.0
  0
LINE
  5
162
100
AcDbEntity
  8
0
  6
Continuous
 62
               7
100
AcDbLine
 10
1045.4533032637346
 20
891.98693900085163
 30
0.0
 11
1027.9271018670861
 21
869.7871132221635
 31
0.0
  0
LINE
  5
163
100
AcDbEntity
  8
0
  6
Continuous
 62
               7
100
AcDbLine
 10
1038.430667462414
 20
891.16075112753697
 30
0.0
 11
1020.9044660657654
 21
868.9609253488486
 31
0.0
  0
LINE
  5
164
100
AcDbEntity
  8
0
  6
Continuous
 62
               7
100
AcDbLine
 10
1031.4080316610934
 20
890.3345632542223
 30
0.0
 11
1013.8818302644448
 21
868.13473747553394
 31
0.0
  0
LINE
  5
165
100
AcDbEntity
  8
0
  6
Continuous
 62
               7
100
AcDbLine
 10
1024.3853958597733
 20
889.50837538090741
 30
0.0
 11
1006.8591944631245
 21
867.30854960221916
 31
0.0
  0
LINE
  5
166
100
AcDbEntity
  8
0
  6
Continuous
 62
               7
100
AcDbLine
 10
1017.3627600584526
 20
888.68218750759274
 30
0.0
 11
999.83655866180413
 21
866.48236172890438
 31
0.0
  0
LINE
  5
167
100
AcDbEntity
  8
0
  6
Continuous
 62
               7
100
AcDbLine
 10
1010.3401242571323
 20
887.85599963427785
 30
0.0
 11
992.81392286048356
 21
865.65617385558971
 31
0.0
  0
LINE
  5
168
100
AcDbEntity
  8
0
  6
Continuous
 62
               7
100
AcDbLine
 10
1003.3174884558119
 20
887.02981176096318
 30
0.0
 11
985.79128705916321
 21
864.82998598227493
 31
0.0
  0
LINE
  5
169
100
AcDbEntity
  8
0
  6
Continuous
 62
               7
100
AcDbLine
 10
996.29485265449136
 20
886.20362388764852
 30
0.0
 11
978.76865125784286
 21
864.00379810896015
 31
0.0
  0
LINE
  5
16A
100
AcDbEntity
  8
0
  6
Continuous
 62
               7
100
AcDbLine
 10
989.27221685317079
 20
885.37743601433385
 30
0.0
 11
971.74601545652229
 21
863.17761023564549
 31
0.0
  0
LINE
  5
16B
100
AcDbEntity
  8
0
  6
Continuous
 62
               7
100
AcDbLine
 10
982.24958105185044
 20
884.55124814101896
 30
0.0
 11
964.72337965520171
 21
862.35142236233071
 31
0.0
  0
LINE
  5
16C
100
AcDbEntity
  8
0
  6
Continuous
 62
               7
100
AcDbLine
 10
975.22694525053009
 20
883.72506026770429
 30
0.0
 11
957.70074385388136
 21
861.52523448901593
 31
0.0
  0
LINE
  5
16D
100
AcDbEntity
  8
0
  6
Continuous
 62
               7
100
AcDbLine
 10
968.20430944920952
 20
882.8988723943894
 30
0.0
 11
950.67810805256102
 21
860.69904661570126
 31
0.0
  0
LINE
  5
16E
100
AcDbEntity
  8
0
  6
Continuous
 62
               7
100
AcDbLine
 10
961.18167364788917
 20
882.07268452107473
 30
0.0
 11
943.65547225124044
 21
859.87285874238648
 31
0.0
  0
LINE
  5
16F
100
AcDbEntity
  8
0
  6
Continuous
 62
               7
100
AcDbLine
 10
954.15903784656882
 20
881.24649664776007
 30
0.0
 11
936.63283644991986
 21
859.0466708690717
 31
0.0
  0
LINE
  5
170
100
AcDbEntity
  8
0
  6
Continuous
 62
               7
100
AcDbLine
 10
947.13640204524825
 20
880.42030877444518
 30
0.0
 11
929.61020064859974
 21
858.22048299575704
 31
0.0
  0
LINE
  5
171
100
AcDbEntity
  8
0
  6
Continuous
 62
               7
100
AcDbLine
 10
940.11376624392767
 20
879.59412090113051
 30
0.0
 11
922.58756484727917
 21
857.39429512244226
 31
0.0
  0
LINE
  5
172
100
AcDbEntity
  8
0
  6
Continuous
 62
               7
100
AcDbLine
 10
933.09113044260732
 20
878.76793302781584
 30
0.0
 11
915.56492904595859
 21
856.56810724912748
 31
0.0
  0
LINE
  5
173
100
AcDbEntity
  8
0
  6
Continuous
 62
               7
100
AcDbLine
 10
926.06849464128697
 20
877.94174515450095
 30
0.0
 11
908.54229324463824
 21
855.74191937581281
 31
0.0
  0
LINE
  5
174
100
AcDbEntity
  8
0
  6
Continuous
 62
               7
100
AcDbLine
 10
919.0458588399664
 20
877.11555728118628
 30
0.0
 11
901.5196574433179
 21
854.91573150249803
 31
0.0
  0
LINE
  5
175
100
AcDbEntity
  8
0
  6
Continuous
 62
               7
100
AcDbLine
 10
912.02322303864605
 20
876.28936940787162
 30
0.0
 11
894.49702164199732
 21
854.08954362918325
 31
0.0
  0
LINE
  5
176
100
AcDbEntity
  8
0
  6
Continuous
 62
               7
100
AcDbLine
 10
905.0005872373257
 20
875.46318153455672
 30
0.0
 11
887.47438584067675
 21
853.26335575586859
 31
0.0
  0
LINE
  5
177
100
AcDbEntity
  8
0
  6
Continuous
 62
               7
100
AcDbLine
 10
897.97795143600513
 20
874.63699366124206
 30
0.0
 11
880.45175003935663
 21
852.43716788255381
 31
0.0
  0
LINE
  5
178
100
AcDbEntity
  8
0
  6
Continuous
 62
               7
100
AcDbLine
 10
890.95531563468455
 20
873.81080578792739
 30
0.0
 11
873.42911423803605
 21
851.61098000923903
 31
0.0
  0
LINE
  5
179
100
AcDbEntity
  8
0
  6
Continuous
 62
               7
100
AcDbLine
 10
883.9326798333642
 20
872.9846179146125
 30
0.0
 11
866.40647843671547
 21
850.78479213592425
 31
0.0
  0
LINE
  5
17A
100
AcDbEntity
  8
0
  6
Continuous
 62
               7
100
AcDbLine
 10
876.91004403204386
 20
872.15843004129783
 30
0.0
 11
859.38384263539513
 21
849.95860426260958
 31
0.0
  0
LINE
  5
17B
100
AcDbEntity
  8
0
  6
Continuous
 62
               7
100
AcDbLine
 10
869.88740823072328
 20
871.33224216798317
 30
0.0
 11
852.36120683407478
 21
849.1324163892948
 31
0.0
  0
LINE
  5
17C
100
AcDbEntity
  8
0
  6
Continuous
 62
               7
100
AcDbLine
 10
862.86477242940293
 20
870.50605429466827
 30
0.0
 11
845.3385710327542
 21
848.30622851598002
 31
0.0
  0
LINE
  5
17D
100
AcDbEntity
  8
0
  6
Continuous
 62
               7
100
AcDbLine
 10
855.84213662808259
 20
869.67986642135361
 30
0.0
 11
838.31593523143363
 21
847.48004064266536
 31
0.0
  0
LINE
  5
17E
100
AcDbEntity
  8
0
  6
Continuous
 62
               7
100
AcDbLine
 10
848.81950082676201
 20
868.85367854803883
 30
0.0
 11
831.29329943011351
 21
846.65385276935058
 31
0.0
  0
LINE
  5
17F
100
AcDbEntity
  8
0
  6
Continuous
 62
               7
100
AcDbLine
 10
841.79686502544143
 20
868.02749067472405
 30
0.0
 11
824.27066362879293
 21
845.8276648960358
 31
0.0
  0
LINE
  5
180
100
AcDbEntity
  8
0
  6
Continuous
 62
               7
100
AcDbLine
 10
834.77422922412109
 20
867.20130280140938
 30
0.0
 11
817.24802782747236
 21
845.00147702272113
 31
0.0
  0
LINE
  5
181
100
AcDbEntity
  8
0
  6
Continuous
 62
               7
100
AcDbLine
 10
827.75159342280074
 20
866.3751149280946
 30
0.0
 11
810.22539202615201
 21
844.17528914940635
 31
0.0
  0
LINE
  5
182
100
AcDbEntity
  8
0
  6
Continuous
 62
               7
100
AcDbLine
 10
820.72895762148016
 20
865.54892705477982
 30
0.0
 11
803.20275622483166
 21
843.34910127609157
 31
0.0
  0
LINE
  5
183
100
AcDbEntity
  8
0
  6
Continuous
 62
               7
100
AcDbLine
 10
813.70632182015981
 20
864.72273918146516
 30
0.0
 11
796.18012042351108
 21
842.52291340277691
 31
0.0
  0
LINE
  5
184
100
AcDbEntity
  8
0
  6
Continuous
 62
               7
100
AcDbLine
 10
806.68368601883947
 20
863.89655130815038
 30
0.0
 11
789.15748462219051
 21
841.69672552946213
 31
0.0
  0
LINE
  5
185
100
AcDbEntity
  8
0
  6
Continuous
 62
               7
100
AcDbLine
 10
799.66105021751889
 20
863.0703634348356
 30
0.0
 11
782.13484882087039
 21
840.87053765614735
 31
0.0
  0
LINE
  5
186
100
AcDbEntity
  8
0
  6
Continuous
 62
               7
100
AcDbLine
 10
792.63841441619832
 20
862.24417556152082
 30
0.0
 11
775.11221301954981
 21
840.04434978283268
 31
0.0
  0
LINE
  5
187
100
AcDbEntity
  8
0
  6
Continuous
 62
               7
100
AcDbLine
 10
785.61577861487797
 20
861.41798768820615
 30
0.0
 11
768.08957721822924
 21
839.2181619095179
 31
0.0
  0
LINE
  5
188
100
AcDbEntity
  8
0
  6
Continuous
 62
               7
100
AcDbLine
 10
778.59314281355762
 20
860.59179981489137
 30
0.0
 11
761.06694141690889
 21
838.39197403620312
 31
0.0
  0
LINE
  5
189
100
AcDbEntity
  8
0
  6
Continuous
 62
               7
100
AcDbLine
 10
771.57050701223704
 20
859.76561194157659
 30
0.0
 11
754.04430561558854
 21
837.56578616288834
 31
0.0
  0
LINE
  5
18A
100
AcDbEntity
  8
0
  6
Continuous
 62
               7
100
AcDbLine
 10
764.54787121091647
 20
858.93942406826193
 30
0.0
 11
747.02166981426797
 21
836.73959828957368
 31
0.0
  0
LINE
  5
18B
100
AcDbEntity
  8
0
  6
Continuous
 62
               7
100
AcDbLine
 10
757.52523540959635
 20
858.11323619494715
 30
0.0
 11
739.99903401294739
 21
835.9134104162589
 31
0.0
  0
LINE
  5
18C
100
AcDbEntity
  8
0
  6
Continuous
 62
               7
100
AcDbLine
 10
750.50259960827577
 20
857.28704832163237
 30
0.0
 11
732.97639821162727
 21
835.08722254294412
 31
0.0
  0
LINE
  5
18D
100
AcDbEntity
  8
0
  6
Continuous
 62
               7
100
AcDbLine
 10
743.4799638069552
 20
856.4608604483177
 30
0.0
 11
730.45276647000071
 21
839.95976561779264
 31
0.0
  0
LINE
  5
18E
100
AcDbEntity
  8
0
  6
Continuous
 62
               7
100
AcDbLine
 10
736.45732800563485
 20
855.63467257500292
 30
0.0
 11
729.62657859668604
 21
846.9824014191131
 31
0.0
  0
LINE
  5
18F
100
AcDbEntity
  8
0
  6
Continuous
 62
               7
100
AcDbLine
 10
729.4346922043145
 20
854.80848470168814
 30
0.0
 11
728.80039072337138
 21
854.00503722043356
 31
0.0
  0
LINE
  5
190
100
AcDbEntity
  8
0
  6
Continuous
 62
               7
100
AcDbLine
 10
734.15837718764885
 20
835.22627812323196
 30
0.0
 11
730.68724990486737
 21
837.96664538727737
 31
0.0
  0
LINE
  5
191
100
AcDbEntity
  8
0
  6
Continuous
 62
               7
100
AcDbLine
 10
741.18101298896943
 20
836.05246599654663
 30
0.0
 11
729.86106203155248
 21
844.98928118859794
 31
0.0
  0
LINE
  5
192
100
AcDbEntity
  8
0
  6
Continuous
 62
               7
100
AcDbLine
 10
748.20364879028978
 20
836.87865386986141
 30
0.0
 11
729.03487415823781
 21
852.01191698991829
 31
0.0
  0
LINE
  5
193
100
AcDbEntity
  8
0
  6
Continuous
 62
               7
100
AcDbLine
 10
755.22628459161012
 20
837.70484174317619
 30
0.0
 11
733.02645881292199
 21
855.23104313982481
 31
0.0
  0
LINE
  5
194
100
AcDbEntity
  8
0
  6
Continuous
 62
               7
100
AcDbLine
 10
762.2489203929307
 20
838.53102961649086
 30
0.0
 11
740.04909461424256
 21
856.05723101313959
 31
0.0
  0
LINE
  5
195
100
AcDbEntity
  8
0
  6
Continuous
 62
               7
100
AcDbLine
 10
769.27155619425127
 20
839.35721748980563
 30
0.0
 11
747.07173041556291
 21
856.88341888645425
 31
0.0
  0
LINE
  5
196
100
AcDbEntity
  8
0
  6
Continuous
 62
               7
100
AcDbLine
 10
776.2941919955714
 20
840.18340536312041
 30
0.0
 11
754.09436621688326
 21
857.70960675976903
 31
0.0
  0
LINE
  5
197
100
AcDbEntity
  8
0
  6
Continuous
 62
               7
100
AcDbLine
 10
783.31682779689197
 20
841.00959323643508
 30
0.0
 11
761.11700201820383
 21
858.53579463308381
 31
0.0
  0
LINE
  5
198
100
AcDbEntity
  8
0
  6
Continuous
 62
               7
100
AcDbLine
 10
790.33946359821255
 20
841.83578110974986
 30
0.0
 11
768.13963781952441
 21
859.36198250639859
 31
0.0
  0
LINE
  5
199
100
AcDbEntity
  8
0
  6
Continuous
 62
               7
100
AcDbLine
 10
797.36209939953289
 20
842.66196898306464
 30
0.0
 11
775.16227362084453
 21
860.18817037971326
 31
0.0
  0
LINE
  5
19A
100
AcDbEntity
  8
0
  6
Continuous
 62
               7
100
AcDbLine
 10
804.38473520085324
 20
843.48815685637942
 30
0.0
 11
782.18490942216511
 21
861.01435825302804
 31
0.0
  0
LINE
  5
19B
100
AcDbEntity
  8
0
  6
Continuous
 62
               7
100
AcDbLine
 10
811.40737100217382
 20
844.31434472969408
 30
0.0
 11
789.20754522348568
 21
861.84054612634282
 31
0.0
  0
LINE
  5
19C
100
AcDbEntity
  8
0
  6
Continuous
 62
               7
100
AcDbLine
 10
818.43000680349439
 20
845.14053260300886
 30
0.0
 11
796.23018102480603
 21
862.66673399965748
 31
0.0
  0
LINE
  5
19D
100
AcDbEntity
  8
0
  6
Continuous
 62
               7
100
AcDbLine
 10
825.45264260481474
 20
845.96672047632364
 30
0.0
 11
803.25281682612638
 21
863.49292187297226
 31
0.0
  0
LINE
  5
19E
100
AcDbEntity
  8
0
  6
Continuous
 62
               7
100
AcDbLine
 10
832.47527840613509
 20
846.79290834963831
 30
0.0
 11
810.27545262744695
 21
864.31910974628704
 31
0.0
  0
LINE
  5
19F
100
AcDbEntity
  8
0
  6
Continuous
 62
               7
100
AcDbLine
 10
839.49791420745566
 20
847.61909622295309
 30
0.0
 11
817.29808842876753
 21
865.14529761960171
 31
0.0
  0
LINE
  5
1A0
100
AcDbEntity
  8
0
  6
Continuous
 62
               7
100
AcDbLine
 10
846.52055000877624
 20
848.44528409626787
 30
0.0
 11
824.32072423008788
 21
865.97148549291649
 31
0.0
  0
LINE
  5
1A1
100
AcDbEntity
  8
0
  6
Continuous
 62
               7
100
AcDbLine
 10
853.54318581009636
 20
849.27147196958254
 30
0.0
 11
831.34336003140822
 21
866.79767336623127
 31
0.0
  0
LINE
  5
1A2
100
AcDbEntity
  8
0
  6
Continuous
 62
               7
100
AcDbLine
 10
860.56582161141694
 20
850.09765984289731
 30
0.0
 11
838.3659958327288
 21
867.62386123954593
 31
0.0
  0
LINE
  5
1A3
100
AcDbEntity
  8
0
  6
Continuous
 62
               7
100
AcDbLine
 10
867.58845741273751
 20
850.92384771621209
 30
0.0
 11
845.38863163404937
 21
868.45004911286071
 31
0.0
  0
LINE
  5
1A4
100
AcDbEntity
  8
0
  6
Continuous
 62
               7
100
AcDbLine
 10
874.61109321405786
 20
851.75003558952676
 30
0.0
 11
852.4112674353695
 21
869.27623698617549
 31
0.0
  0
LINE
  5
1A5
100
AcDbEntity
  8
0
  6
Continuous
 62
               7
100
AcDbLine
 10
881.63372901537821
 20
852.57622346284154
 30
0.0
 11
859.43390323669007
 21
870.10242485949016
 31
0.0
  0
LINE
  5
1A6
100
AcDbEntity
  8
0
  6
Continuous
 62
               7
100
AcDbLine
 10
888.65636481669878
 20
853.40241133615632
 30
0.0
 11
866.45653903801065
 21
870.92861273280505
 31
0.0
  0
LINE
  5
1A7
100
AcDbEntity
  8
0
  6
Continuous
 62
               7
100
AcDbLine
 10
895.67900061801936
 20
854.22859920947099
 30
0.0
 11
873.47917483933099
 21
871.75480060611972
 31
0.0
  0
LINE
  5
1A8
100
AcDbEntity
  8
0
  6
Continuous
 62
               7
100
AcDbLine
 10
902.70163641933971
 20
855.05478708278577
 30
0.0
 11
880.50181064065134
 21
872.58098847943438
 31
0.0
  0
LINE
  5
1A9
100
AcDbEntity
  8
0
  6
Continuous
 62
               7
100
AcDbLine
 10
909.72427222066005
 20
855.88097495610054
 30
0.0
 11
887.52444644197192
 21
873.40717635274927
 31
0.0
  0
LINE
  5
1AA
100
AcDbEntity
  8
0
  6
Continuous
 62
               7
100
AcDbLine
 10
916.74690802198063
 20
856.70716282941521
 30
0.0
 11
894.54708224329249
 21
874.23336422606394
 31
0.0
  0
LINE
  5
1AB
100
AcDbEntity
  8
0
  6
Continuous
 62
               7
100
AcDbLine
 10
923.76954382330121
 20
857.53335070272999
 30
0.0
 11
901.56971804461284
 21
875.05955209937861
 31
0.0
  0
LINE
  5
1AC
100
AcDbEntity
  8
0
  6
Continuous
 62
               7
100
AcDbLine
 10
930.79217962462133
 20
858.35953857604477
 30
0.0
 11
908.59235384593319
 21
875.8857399726935
 31
0.0
  0
LINE
  5
1AD
100
AcDbEntity
  8
0
  6
Continuous
 62
               7
100
AcDbLine
 10
937.8148154259419
 20
859.18572644935944
 30
0.0
 11
915.61498964725376
 21
876.71192784600817
 31
0.0
  0
LINE
  5
1AE
100
AcDbEntity
  8
0
  6
Continuous
 62
               7
100
AcDbLine
 10
944.83745122726248
 20
860.01191432267422
 30
0.0
 11
922.63762544857434
 21
877.53811571932283
 31
0.0
  0
LINE
  5
1AF
100
AcDbEntity
  8
0
  6
Continuous
 62
               7
100
AcDbLine
 10
951.86008702858283
 20
860.83810219598899
 30
0.0
 11
929.66026124989446
 21
878.36430359263773
 31
0.0
  0
LINE
  5
1B0
100
AcDbEntity
  8
0
  6
Continuous
 62
               7
100
AcDbLine
 10
958.88272282990317
 20
861.66429006930377
 30
0.0
 11
936.68289705121504
 21
879.19049146595239
 31
0.0
  0
LINE
  5
1B1
100
AcDbEntity
  8
0
  6
Continuous
 62
               7
100
AcDbLine
 10
965.90535863122375
 20
862.49047794261844
 30
0.0
 11
943.70553285253561
 21
880.01667933926728
 31
0.0
  0
LINE
  5
1B2
100
AcDbEntity
  8
0
  6
Continuous
 62
               7
100
AcDbLine
 10
972.92799443254432
 20
863.31666581593322
 30
0.0
 11
950.72816865385596
 21
880.84286721258195
 31
0.0
  0
LINE
  5
1B3
100
AcDbEntity
  8
0
  6
Continuous
 62
               7
100
AcDbLine
 10
979.95063023386467
 20
864.142853689248
 30
0.0
 11
957.75080445517631
 21
881.66905508589662
 31
0.0
  0
LINE
  5
1B4
100
AcDbEntity
  8
0
  6
Continuous
 62
               7
100
AcDbLine
 10
986.97326603518502
 20
864.96904156256267
 30
0.0
 11
964.77344025649688
 21
882.49524295921151
 31
0.0
  0
LINE
  5
1B5
100
AcDbEntity
  8
0
  6
Continuous
 62
               7
100
AcDbLine
 10
993.9959018365056
 20
865.79522943587745
 30
0.0
 11
971.79607605781746
 21
883.32143083252618
 31
0.0
  0
LINE
  5
1B6
100
AcDbEntity
  8
0
  6
Continuous
 62
               7
100
AcDbLine
 10
1001.0185376378259
 20
866.62141730919222
 30
0.0
 11
978.81871185913781
 21
884.14761870584084
 31
0.0
  0
LINE
  5
1B7
100
AcDbEntity
  8
0
  6
Continuous
 62
               7
100
AcDbLine
 10
1008.0411734391463
 20
867.44760518250689
 30
0.0
 11
985.84134766045815
 21
884.97380657915573
 31
0.0
  0
LINE
  5
1B8
100
AcDbEntity
  8
0
  6
Continuous
 62
               7
100
AcDbLine
 10
1015.0638092404669
 20
868.27379305582167
 30
0.0
 11
992.86398346177873
 21
885.7999944524704
 31
0.0
  0
LINE
  5
1B9
100
AcDbEntity
  8
0
  6
Continuous
 62
               7
100
AcDbLine
 10
1022.0864450417874
 20
869.09998092913656
 30
0.0
 11
999.88661926309908
 21
886.62618232578507
 31
0.0
  0
LINE
  5
1BA
100
AcDbEntity
  8
0
  6
Continuous
 62
               7
100
AcDbLine
 10
1029.1090808431077
 20
869.92616880245123
 30
0.0
 11
1006.9092550644194
 21
887.45237019909996
 31
0.0
  0
LINE
  5
1BB
100
AcDbEntity
  8
0
  6
Continuous
 62
               7
100
AcDbLine
 10
1036.1317166444283
 20
870.7523566757659
 30
0.0
 11
1013.93189086574
 21
888.27855807241463
 31
0.0
  0
LINE
  5
1BC
100
AcDbEntity
  8
0
  6
Continuous
 62
               7
100
AcDbLine
 10
1043.1543524457488
 20
871.57854454908079
 30
0.0
 11
1020.9545266670606
 21
889.10474594572929
 31
0.0
  0
LINE
  5
1BD
100
AcDbEntity
  8
0
  6
Continuous
 62
               7
100
AcDbLine
 10
1050.1769882470694
 20
872.40473242239545
 30
0.0
 11
1027.9771624683808
 21
889.93093381904418
 31
0.0
  0
LINE
  5
1BE
100
AcDbEntity
  8
0
  6
Continuous
 62
               7
100
AcDbLine
 10
1057.1996240483895
 20
873.23092029571012
 30
0.0
 11
1034.9997982697014
 21
890.75712169235885
 31
0.0
  0
LINE
  5
1BF
100
AcDbEntity
  8
0
  6
Continuous
 62
               7
100
AcDbLine
 10
1064.2222598497101
 20
874.05710816902501
 30
0.0
 11
1042.022434071022
 21
891.58330956567352
 31
0.0
  0
LINE
  5
1C0
100
AcDbEntity
  8
0
  6
Continuous
 62
               7
100
AcDbLine
 10
1071.2448956510307
 20
874.88329604233968
 30
0.0
 11
1049.0450698723425
 21
892.40949743898841
 31
0.0
  0
LINE
  5
1C1
100
AcDbEntity
  8
0
  6
Continuous
 62
               7
100
AcDbLine
 10
1078.2675314523508
 20
875.70948391565435
 30
0.0
 11
1056.0677056736627
 21
893.23568531230308
 31
0.0
  0
LINE
  5
1C2
100
AcDbEntity
  8
0
  6
Continuous
 62
               7
100
AcDbLine
 10
1085.2901672536714
 20
876.53567178896924
 30
0.0
 11
1063.0903414749832
 21
894.06187318561774
 31
0.0
  0
LINE
  5
1C3
100
AcDbEntity
  8
0
  6
Continuous
 62
               7
100
AcDbLine
 10
1092.3128030549919
 20
877.3618596622839
 30
0.0
 11
1070.1129772763038
 21
894.88806105893264
 31
0.0
  0
LINE
  5
1C4
100
AcDbEntity
  8
0
  6
Continuous
 62
               7
100
AcDbLine
 10
1099.3354388563125
 20
878.18804753559857
 30
0.0
 11
1077.1356130776239
 21
895.7142489322473
 31
0.0
  0
LINE
  5
1C5
100
AcDbEntity
  8
0
  6
Continuous
 62
               7
100
AcDbLine
 10
1106.3580746576326
 20
879.01423540891346
 30
0.0
 11
1084.1582488789445
 21
896.54043680556197
 31
0.0
  0
LINE
  5
1C6
100
AcDbEntity
  8
0
  6
Continuous
 62
               7
100
AcDbLine
 10
1113.3807104589532
 20
879.84042328222813
 30
0.0
 11
1091.1808846802651
 21
897.36662467887686
 31
0.0
  0
LINE
  5
1C7
100
AcDbEntity
  8
0
  6
Continuous
 62
               7
100
AcDbLine
 10
1120.4033462602738
 20
880.6666111555428
 30
0.0
 11
1098.2035204815857
 21
898.19281255219153
 31
0.0
  0
LINE
  5
1C8
100
AcDbEntity
  8
0
  6
Continuous
 62
               7
100
AcDbLine
 10
1127.4259820615944
 20
881.49279902885769
 30
0.0
 11
1105.2261562829058
 21
899.01900042550619
 31
0.0
  0
LINE
  5
1C9
100
AcDbEntity
  8
0
  6
Continuous
 62
               7
100
AcDbLine
 10
1134.4486178629145
 20
882.31898690217236
 30
0.0
 11
1112.2487920842264
 21
899.84518829882109
 31
0.0
  0
LINE
  5
1CA
100
AcDbEntity
  8
0
  6
Continuous
 62
               7
100
AcDbLine
 10
1141.4712536642351
 20
883.14517477548702
 30
0.0
 11
1119.2714278855469
 21
900.67137617213575
 31
0.0
  0
LINE
  5
1CB
100
AcDbEntity
  8
0
  6
Continuous
 62
               7
100
AcDbLine
 10
1145.5568671302062
 20
886.2900675552703
 30
0.0
 11
1126.2940636868675
 21
901.49756404545042
 31
0.0
  0
LINE
  5
1CC
100
AcDbEntity
  8
0
  6
Continuous
 62
               7
100
AcDbLine
 10
1145.5568671302062
 20
892.66044891083379
 30
0.0
 11
1133.3166994881876
 21
902.32375191876531
 31
0.0
  0
LINE
  5
1CD
100
AcDbEntity
  8
0
  6
Continuous
 62
               7
100
AcDbLine
 10
1145.5568671302062
 20
899.03083026639706
 30
0.0
 11
1140.3393352895082
 21
903.14993979207998
 31
0.0
  0
LINE
  5
1CE
100
AcDbEntity
  8
0
  6
Continuous
 62
               4
100
AcDbLine
 10
1033.5568671302062
 20
451.08639040986327
 30
0.0
 11
1033.5568671302062
 21
413.08639040986327
 31
0.0
  0
LINE
  5
1CF
100
AcDbEntity
  8
0
  6
Continuous
 62
               4
100
AcDbLine
 10
1033.5568671302062
 20
451.08639040986327
 30
0.0
 11
1039.5568671302062
 21
451.08639040986327
 31
0.0
  0
LINE
  5
1D0
100
AcDbEntity
  8
0
  6
Continuous
 62
               4
100
AcDbLine
 10
1033.5568671302062
 20
351.08639040986327
 30
0.0
 11
1039.5568671302062
 21
351.08639040986327
 31
0.0
  0
LINE
  5
1D1
100
AcDbEntity
  8
0
  6
Continuous
 62
               4
100
AcDbLine
 10
1033.5568671302062
 20
389.08639040986327
 30
0.0
 11
1033.5568671302062
 21
351.08639040986327
 31
0.0
  0
LINE
  5
1D2
100
AcDbEntity
  8
0
  6
Continuous
 62
               2
100
AcDbLine
 10
1024.4186748886832
 20
898.57435955524534
 30
0.0
 11
1192.5971584117588
 21
918.35995396313183
 31
0.0
  0
LINE
  5
1D3
100
AcDbEntity
  8
0
  6
Continuous
 62
               2
100
AcDbLine
 10
1174.5568671302067
 20
765.06394960873138
 30
0.0
 11
1174.5568671302067
 21
914.22378538862677
 31
0.0
  0
LINE
  5
1D4
100
AcDbEntity
  8
0
  6
DASHED
 62
               6
100
AcDbLine
 10
1171.4400265206555
 20
913.85710028811491
 30
0.0
 11
509.40478399200572
 21
835.97103235599866
 31
0.0
  0
LINE
  5
1D5
100
AcDbEntity
  8
0
  6
DASHED
 62
               6
100
AcDbLine
 10
1172.5568671302067
 20
912.86394960873145
 30
0.0
 11
1172.5568671302067
 21
346.26294306291641
 31
0.0
  0
LINE
  5
1D6
100
AcDbEntity
  8
0
  6
Continuous
 62
               4
100
AcDbLine
 10
1173.5568671302067
 20
762.86394960873133
 30
0.0
 11
1192.4568671302068
 21
762.86394960873133
 31
0.0
  0
LINE
  5
1D7
100
AcDbEntity
  8
0
  6
Continuous
 62
               4
100
AcDbLine
 10
1173.5568671302067
 20
782.86394960873133
 30
0.0
 11
1173.5568671302067
 21
762.86394960873133
 31
0.0
  0
LINE
  5
1D8
100
AcDbEntity
  8
0
  6
Continuous
 62
               2
100
AcDbLine
 10
1175.5568671302067
 20
764.06394960873138
 30
0.0
 11
1192.1568671302066
 21
764.06394960873138
 31
0.0
  0
LINE
  5
1D9
100
AcDbEntity
  8
0
  6
Continuous
 62
               2
100
AcDbLine
 10
1175.5568671302067
 20
761.6639496087314
 30
0.0
 11
1192.7568671302065
 21
761.6639496087314
 31
0.0
  0
LINE
  5
1DA
100
AcDbEntity
  8
0
  6
Continuous
 62
               2
100
AcDbLine
 10
1185.4568671302068
 20
761.06394960873138
 30
0.0
 11
1191.5568671302067
 21
761.06394960873138
 31
0.0
  0
LINE
  5
1DB
100
AcDbEntity
  8
0
  6
Continuous
 62
               2
100
AcDbLine
 10
1185.5568671302067
 20
760.46394960873135
 30
0.0
 11
1192.7568671302065
 21
760.46394960873135
 31
0.0
  0
LINE
  5
1DC
100
AcDbEntity
  8
0
  6
Continuous
 62
               4
100
AcDbLine
 10
1185.5568671302067
 20
759.86394960873133
 30
0.0
 11
1192.4568671302068
 21
759.86394960873133
 31
0.0
  0
LINE
  5
1DD
100
AcDbEntity
  8
0
  6
Continuous
 62
               2
100
AcDbLine
 10
1185.4568671302068
 20
759.26394960873131
 30
0.0
 11
1192.1568671302066
 21
759.26394960873131
 31
0.0
  0
LINE
  5
1DE
100
AcDbEntity
  8
0
  6
Continuous
 62
               2
100
AcDbLine
 10
1174.5568671302067
 20
540.06394960873138
 30
0.0
 11
1174.5568671302067
 21
760.6639496087314
 31
0.0
  0
LINE
  5
1DF
100
AcDbEntity
  8
0
  6
DASHDOT
 62
               7
100
AcDbLine
 10
1121.0568671302062
 20
772.86394960873133
 30
0.0
 11
1174.5568671302067
 21
772.86394960873133
 31
0.0
  0
LINE
  5
1E0
100
AcDbEntity
  8
0
  6
Continuous
 62
               4
100
AcDbLine
 10
1173.5568671302067
 20
537.86394960873133
 30
0.0
 11
1192.4568671302068
 21
537.86394960873145
 31
0.0
  0
LINE
  5
1E1
100
AcDbEntity
  8
0
  6
Continuous
 62
               4
100
AcDbLine
 10
1173.5568671302067
 20
557.86394960873133
 30
0.0
 11
1173.5568671302067
 21
537.86394960873133
 31
0.0
  0
LINE
  5
1E2
100
AcDbEntity
  8
0
  6
Continuous
 62
               2
100
AcDbLine
 10
1175.5568671302067
 20
539.06394960873138
 30
0.0
 11
1192.1568671302066
 21
539.06394960873138
 31
0.0
  0
LINE
  5
1E3
100
AcDbEntity
  8
0
  6
Continuous
 62
               2
100
AcDbLine
 10
1175.5568671302067
 20
536.6639496087314
 30
0.0
 11
1192.7568671302065
 21
536.6639496087314
 31
0.0
  0
LINE
  5
1E4
100
AcDbEntity
  8
0
  6
Continuous
 62
               2
100
AcDbLine
 10
1185.4568671302068
 20
536.06394960873138
 30
0.0
 11
1191.5568671302067
 21
536.06394960873138
 31
0.0
  0
LINE
  5
1E5
100
AcDbEntity
  8
0
  6
Continuous
 62
               2
100
AcDbLine
 10
1185.5568671302067
 20
535.46394960873135
 30
0.0
 11
1192.7568671302065
 21
535.46394960873135
 31
0.0
  0
LINE
  5
1E6
100
AcDbEntity
  8
0
  6
Continuous
 62
               4
100
AcDbLine
 10
1185.5568671302067
 20
534.86394960873133
 30
0.0
 11
1192.4568671302068
 21
534.86394960873133
 31
0.0
  0
LINE
  5
1E7
100
AcDbEntity
  8
0
  6
Continuous
 62
               2
100
AcDbLine
 10
1185.4568671302068
 20
534.26394960873131
 30
0.0
 11
1192.1568671302066
 21
534.26394960873131
 31
0.0
  0
LINE
  5
1E8
100
AcDbEntity
  8
0
  6
Continuous
 62
               2
100
AcDbLine
 10
1174.5568671302067
 20
535.6639496087314
 30
0.0
 11
1174.5568671302067
 21
346.26294306291641
 31
0.0
  0
LINE
  5
1E9
100
AcDbEntity
  8
0
  6
Continuous
 62
               4
100
AcDbLine
 10
1022.3505840035908
 20
897.32415953484974
 30
0.0
 11
1020.1422964830771
 21
916.09470737519655
 31
0.0
  0
LINE
  5
1EA
100
AcDbEntity
  8
0
  6
Continuous
 62
               4
100
AcDbLine
 10
1002.4875704159223
 20
894.98734734383015
 30
0.0
 11
1022.3505840035908
 21
897.32415953484974
 31
0.0
  0
LINE
  5
1EB
100
AcDbEntity
  8
0
  6
Continuous
 62
               2
100
AcDbLine
 10
1023.3086835997489
 20
899.45066962507781
 30
0.0
 11
1021.2990251154719
 21
916.53286131047275
 31
0.0
  0
LINE
  5
1EC
100
AcDbEntity
  8
0
  6
Continuous
 62
               2
100
AcDbLine
 10
1020.9251219692286
 20
899.17025216215552
 30
0.0
 11
1018.9855678506823
 21
915.65655343992034
 31
0.0
  0
LINE
  5
1ED
100
AcDbEntity
  8
0
  6
Continuous
 62
               2
100
AcDbLine
 10
1022.7478519728242
 20
909.35296571670438
 30
0.0
 11
1022.0351242545629
 21
915.41118486094319
 31
0.0
  0
LINE
  5
1EE
100
AcDbEntity
  8
0
  6
Continuous
 62
               2
100
AcDbLine
 10
1023.332058319499
 20
909.52238515037334
 30
0.0
 11
1022.4908059307319
 21
916.67307004193412
 31
0.0
  0
LINE
  5
1EF
100
AcDbEntity
  8
0
  6
Continuous
 62
               4
100
AcDbLine
 10
1023.9279487271291
 20
909.5924895161038
 30
0.0
 11
1023.1217485212272
 21
916.44522920384952
 31
0.0
  0
LINE
  5
1F0
100
AcDbEntity
  8
0
  6
Continuous
 62
               2
100
AcDbLine
 10
1024.5355231957142
 20
909.5632788138962
 30
0.0
 11
1023.7526911117226
 21
916.21738836576515
 31
0.0
  0
LINE
  5
1F1
100
AcDbEntity
  8
0
  6
Continuous
 62
               2
100
AcDbLine
 10
1020.0488118993961
 20
898.06026087322107
 30
0.0
 11
800.95977202741312
 21
872.28522240627285
 31
0.0
  0
LINE
  5
1F2
100
AcDbEntity
  8
0
  6
Continuous
 62
               4
100
AcDbLine
 10
798.89168114232041
 20
871.03502238587726
 30
0.0
 11
796.68339362180689
 21
889.80557022622384
 31
0.0
  0
LINE
  5
1F3
100
AcDbEntity
  8
0
  6
Continuous
 62
               4
100
AcDbLine
 10
779.02866755465209
 20
868.69821019485744
 30
0.0
 11
798.89168114232041
 21
871.03502238587726
 31
0.0
  0
LINE
  5
1F4
100
AcDbEntity
  8
0
  6
Continuous
 62
               2
100
AcDbLine
 10
799.84978073847867
 20
873.16153247610532
 30
0.0
 11
797.8401222542019
 21
890.24372416150027
 31
0.0
  0
LINE
  5
1F5
100
AcDbEntity
  8
0
  6
Continuous
 62
               2
100
AcDbLine
 10
797.46621910795864
 20
872.88111501318281
 30
0.0
 11
795.52666498941232
 21
889.36741629094786
 31
0.0
  0
LINE
  5
1F6
100
AcDbEntity
  8
0
  6
Continuous
 62
               2
100
AcDbLine
 10
799.28894911155396
 20
883.06382856773189
 30
0.0
 11
798.57622139329294
 21
889.12204771197071
 31
0.0
  0
LINE
  5
1F7
100
AcDbEntity
  8
0
  6
Continuous
 62
               2
100
AcDbLine
 10
799.87315545822901
 20
883.23324800140063
 30
0.0
 11
799.03190306946169
 21
890.38393289296141
 31
0.0
  0
LINE
  5
1F8
100
AcDbEntity
  8
0
  6
Continuous
 62
               4
100
AcDbLine
 10
800.4690458658589
 20
883.30335236713131
 30
0.0
 11
799.66284565995727
 21
890.15609205487704
 31
0.0
  0
LINE
  5
1F9
100
AcDbEntity
  8
0
  6
Continuous
 62
               2
100
AcDbLine
 10
801.0766203344441
 20
883.27414166492372
 30
0.0
 11
800.29378825045239
 21
889.92825121679243
 31
0.0
  0
LINE
  5
1FA
100
AcDbEntity
  8
0
  6
Continuous
 62
               4
100
AcDbLine
 10
555.56976469338213
 20
842.40907304588472
 30
0.0
 11
575.43277828105045
 21
844.74588523690454
 31
0.0
  0
LINE
  5
1FB
100
AcDbEntity
  8
0
  6
Continuous
 62
               2
100
AcDbLine
 10
576.39087787720871
 20
846.87239532713249
 30
0.0
 11
574.3812193929316
 21
863.95458701252755
 31
0.0
  0
LINE
  5
1FC
100
AcDbEntity
  8
0
  6
Continuous
 62
               2
100
AcDbLine
 10
574.00731624668845
 20
846.59197786421021
 30
0.0
 11
572.06776212814214
 21
863.07827914197514
 31
0.0
  0
LINE
  5
1FD
100
AcDbEntity
  8
0
  6
Continuous
 62
               2
100
AcDbLine
 10
575.83004625028389
 20
856.77469141875918
 30
0.0
 11
575.11731853202275
 21
862.83291056299799
 31
0.0
  0
LINE
  5
1FE
100
AcDbEntity
  8
0
  6
Continuous
 62
               2
100
AcDbLine
 10
576.41425259695882
 20
856.94411085242803
 30
0.0
 11
575.5730002081915
 21
864.0947957439887
 31
0.0
  0
LINE
  5
1FF
100
AcDbEntity
  8
0
  6
Continuous
 62
               4
100
AcDbLine
 10
577.01014300458894
 20
857.0142152181586
 30
0.0
 11
576.20394279868697
 21
863.86695490590432
 31
0.0
  0
LINE
  5
200
100
AcDbEntity
  8
0
  6
Continuous
 62
               2
100
AcDbLine
 10
577.61771747317391
 20
856.985004515951
 30
0.0
 11
576.8348853891822
 21
863.63911406781983
 31
0.0
  0
LINE
  5
201
100
AcDbEntity
  8
0
  6
Continuous
 62
               4
100
AcDbLine
 10
575.43277828105045
 20
844.74588523690454
 30
0.0
 11
573.22449076053681
 21
863.51643307725135
 31
0.0
  0
LINE
  5
202
100
AcDbEntity
  8
0
  6
Continuous
 62
               2
100
AcDbLine
 10
573.13100617685586
 20
845.48198657527576
 30
0.0
 11
509.17110277290374
 21
837.95733371476547
 31
0.0
  0
LINE
  5
203
100
AcDbEntity
  8
0
  6
Continuous
 62
               2
100
AcDbLine
 10
577.50086916614293
 20
845.99608525730014
 30
0.0
 11
796.58990903812617
 21
871.77112372424835
 31
0.0
  0
LINE
  5
204
100
AcDbEntity
  8
0
  6
Continuous
 62
               4
100
AcDbLine
 10
1171.1684867108484
 20
943.0251784010984
 30
0.0
 11
1173.8558234729007
 21
920.18268946492731
 31
0.0
  0
LINE
  5
205
100
AcDbEntity
  8
0
  6
Continuous
 62
               4
100
AcDbLine
 10
1014.1717359280273
 20
966.84475305139199
 30
0.0
 11
1019.6749340448729
 21
920.06731009273039
 31
0.0
  0
LINE
  5
206
100
AcDbEntity
  8
0
  6
Continuous
 62
               4
100
AcDbLine
 10
1186.3578732518627
 20
985.08804041680537
 30
0.0
 11
1014.4054171471292
 21
964.85845169262529
 31
0.0
  0
LINE
  5
207
100
AcDbEntity
  8
0
  6
Continuous
 62
               4
100
AcDbLine
 10
790.7128330667573
 20
940.5556159024195
 30
0.0
 11
796.21603118360292
 21
893.77817294375768
 31
0.0
  0
LINE
  5
208
100
AcDbEntity
  8
0
  6
Continuous
 62
               4
100
AcDbLine
 10
1014.4054171471292
 20
964.85845169262529
 30
0.0
 11
790.94651428585928
 21
938.56931454365258
 31
0.0
  0
LINE
  5
209
100
AcDbEntity
  8
0
  6
Continuous
 62
               4
100
AcDbLine
 10
567.25393020548734
 20
914.26647875344679
 30
0.0
 11
572.75712832233273
 21
867.48903579478497
 31
0.0
  0
LINE
  5
20A
100
AcDbEntity
  8
0
  6
Continuous
 62
               4
100
AcDbLine
 10
790.94651428585928
 20
938.56931454365258
 30
0.0
 11
567.48761142458932
 21
912.28017739468009
 31
0.0
  0
LINE
  5
20B
100
AcDbEntity
  8
0
  6
Continuous
 62
               4
100
AcDbLine
 10
1178.5568671302067
 20
912.86394960873145
 30
0.0
 11
1243.5568671302067
 21
912.86394960873145
 31
0.0
  0
LINE
  5
20C
100
AcDbEntity
  8
0
  6
Continuous
 62
               4
100
AcDbLine
 10
1196.4568671302068
 20
762.86394960873133
 30
0.0
 11
1243.5568671302067
 21
762.86394960873133
 31
0.0
  0
LINE
  5
20D
100
AcDbEntity
  8
0
  6
Continuous
 62
               4
100
AcDbLine
 10
1241.5568671302067
 20
912.86394960873145
 30
0.0
 11
1241.5568671302067
 21
762.86394960873133
 31
0.0
  0
LINE
  5
20E
100
AcDbEntity
  8
0
  6
Continuous
 62
               4
100
AcDbLine
 10
1196.4568671302068
 20
537.86394960873145
 30
0.0
 11
1243.5568671302067
 21
537.86394960873145
 31
0.0
  0
LINE
  5
20F
100
AcDbEntity
  8
0
  6
Continuous
 62
               4
100
AcDbLine
 10
1241.5568671302067
 20
762.86394960873133
 30
0.0
 11
1241.5568671302067
 21
537.86394960873145
 31
0.0
  0
LINE
  5
210
100
AcDbEntity
  8
0
  6
Continuous
 62
               4
100
AcDbLine
 10
1194.5568671302067
 20
414.26294306291641
 30
0.0
 11
1194.5568671302067
 21
532.6639496087314
 31
0.0
  0
LINE
  5
211
100
AcDbEntity
  8
0
  6
Continuous
 62
               4
100
AcDbLine
 10
1174.5568671302067
 20
416.26294306291641
 30
0.0
 11
1194.5568671302067
 21
416.26294306291641
 31
0.0
  0
LINE
  5
212
100
AcDbEntity
  8
0
  6
Continuous
 62
               4
100
AcDbLine
 10
1241.5568671302067
 20
537.86394960873145
 30
0.0
 11
1241.5568671302067
 21
437.86394960873145
 31
0.0
  0
LINE
  5
213
100
AcDbEntity
  8
0
  6
Continuous
 62
               4
100
AcDbLine
 10
1241.5568671302067
 20
437.86394960873145
 30
0.0
 11
1239.4132735907574
 21
445.86394960873145
 31
0.0
  0
LINE
  5
214
100
AcDbEntity
  8
0
  6
Continuous
 62
               4
100
AcDbLine
 10
1239.4132735907574
 20
445.86394960873145
 30
0.0
 11
1245.5568671302067
 21
447.86394960873145
 31
0.0
  0
LINE
  5
215
100
AcDbEntity
  8
0
  6
Continuous
 62
               4
100
AcDbLine
 10
678.70754730376734
 20
526.63371998893922
 30
0.0
 11
649.49739491601997
 21
774.92138983479481
 31
0.0
  0
LINE
  5
216
100
AcDbEntity
  8
0
  6
Continuous
 62
               4
100
AcDbLine
 10
720.41987583787102
 20
531.54102559008084
 30
0.0
 11
697.05175392767319
 21
730.1711614667654
 31
0.0
  0
LINE
  5
217
100
AcDbEntity
  8
0
  6
Continuous
 62
               4
100
AcDbLine
 10
697.05175392767319
 20
730.1711614667654
 30
0.0
 11
685.36769297257433
 21
829.48622940510757
 31
0.0
  0
LINE
  5
218
100
AcDbEntity
  8
0
  6
Continuous
 62
               4
100
AcDbLine
 10
685.36769297257433
 20
829.48622940510757
 30
0.0
 11
681.9793152955956
 21
858.28759910722681
 31
0.0
  0
LINE
  5
219
100
AcDbEntity
  8
0
  6
Continuous
 62
               4
100
AcDbLine
 10
677.65620174580897
 20
877.91693147579326
 30
0.0
 11
793.65720643947623
 21
891.56403294618622
 31
0.0
  0
LINE
  5
21A
100
AcDbEntity
  8
0
  6
Continuous
 62
               4
100
AcDbLine
 10
681.9793152955956
 20
858.28759910722681
 30
0.0
 11
679.64250310457578
 21
878.15061269489524
 31
0.0
  0
LINE
  5
21B
100
AcDbEntity
  8
0
  6
Continuous
 62
               4
100
AcDbLine
 10
710.95586343904108
 20
731.80693000047916
 30
0.0
 11
705.11383296149177
 21
781.4644639696503
 31
0.0
  0
LINE
  5
21C
100
AcDbEntity
  8
0
  6
Continuous
 62
               4
100
AcDbLine
 10
705.11383296149177
 20
781.4644639696503
 30
0.0
 11
699.27180248394211
 21
831.12199793882144
 31
0.0
  0
LINE
  5
21D
100
AcDbEntity
  8
0
  6
Continuous
 62
               4
100
AcDbLine
 10
699.27180248394211
 20
831.12199793882144
 30
0.0
 11
696.93499029292241
 21
850.98501152648987
 31
0.0
  0
LINE
  5
21E
100
AcDbEntity
  8
0
  6
Continuous
 62
               4
100
AcDbLine
 10
696.93499029292241
 20
850.98501152648987
 30
0.0
 11
696.23394663561646
 21
856.9439156027903
 31
0.0
  0
LINE
  5
21F
100
AcDbEntity
  8
0
  6
Continuous
 62
               4
100
AcDbLine
 10
761.55686713020611
 20
561.08639040986327
 30
0.0
 11
763.18960353676846
 21
555.31281510276938
 31
0.0
  0
LINE
  5
220
100
AcDbEntity
  8
0
  6
Continuous
 62
               4
100
AcDbLine
 10
761.55686713020611
 20
561.08639040986327
 30
0.0
 11
760.08407068242593
 21
555.26995931997601
 31
0.0
  0
LINE
  5
221
100
AcDbEntity
  8
0
  6
Continuous
 62
               4
100
AcDbLine
 10
762.99522445968739
 20
536.54986240415565
 30
0.0
 11
760.85292031302731
 21
542.15437245796079
 31
0.0
  0
LINE
  5
222
100
AcDbEntity
  8
0
  6
Continuous
 62
               4
100
AcDbLine
 10
762.99522445968739
 20
536.54986240415565
 30
0.0
 11
763.94218967294944
 21
542.47466255984614
 31
0.0
  0
LINE
  5
223
100
AcDbEntity
  8
0
  6
Continuous
 62
               4
100
AcDbLine
 10
762.99522445968739
 20
536.54986240415565
 30
0.0
 11
765.29136578928853
 21
531.00660208242277
 31
0.0
  0
LINE
  5
224
100
AcDbEntity
  8
0
  6
Continuous
 62
               4
100
AcDbLine
 10
762.99522445968739
 20
536.54986240415565
 30
0.0
 11
762.21211102093491
 21
530.60118748094408
 31
0.0
  0
LINE
  5
225
100
AcDbEntity
  8
0
  6
Continuous
 62
               4
100
AcDbLine
 10
971.55686713020611
 20
351.08639040986327
 30
0.0
 11
965.74043604031874
 21
349.61359396208331
 31
0.0
  0
LINE
  5
226
100
AcDbEntity
  8
0
  6
Continuous
 62
               4
100
AcDbLine
 10
971.55686713020611
 20
351.08639040986327
 30
0.0
 11
965.78329182311188
 21
352.71912681642596
 31
0.0
  0
LINE
  5
227
100
AcDbEntity
  8
0
  6
Continuous
 62
               4
100
AcDbLine
 10
635.556867130206
 20
798.45375075564982
 30
0.0
 11
635.556867130206
 21
1052.8639496087314
 31
0.0
  0
LINE
  5
228
100
AcDbEntity
  8
0
  6
Continuous
 62
               4
100
AcDbLine
 10
635.556867130206
 20
798.45375075564982
 30
0.0
 11
634.00395285959087
 21
804.24930571338427
 31
0.0
  0
LINE
  5
229
100
AcDbEntity
  8
0
  6
Continuous
 62
               4
100
AcDbLine
 10
635.556867130206
 20
798.45375075564982
 30
0.0
 11
637.10978140082113
 21
804.24930571338427
 31
0.0
  0
LINE
  5
22A
100
AcDbEntity
  8
0
  6
Continuous
 62
               4
100
AcDbLine
 10
430.556867130206
 20
1052.8639496087314
 30
0.0
 11
635.556867130206
 21
1052.8639496087314
 31
0.0
  0
LINE
  5
22B
100
AcDbEntity
  8
0
  6
Continuous
 62
               4
100
AcDbLine
 10
635.556867130206
 20
1038.8639496087314
 30
0.0
 11
430.556867130206
 21
1038.8639496087314
 31
0.0
  0
LINE
  5
22C
100
AcDbEntity
  8
0
  6
Continuous
 62
               4
100
AcDbLine
 10
635.556867130206
 20
1024.8639496087314
 30
0.0
 11
430.556867130206
 21
1024.8639496087314
 31
0.0
  0
LINE
  5
22D
100
AcDbEntity
  8
0
  6
Continuous
 62
               4
100
AcDbLine
 10
635.556867130206
 20
1010.8639496087314
 30
0.0
 11
430.556867130206
 21
1010.8639496087314
 31
0.0
  0
LINE
  5
22E
100
AcDbEntity
  8
0
  6
Continuous
 62
               4
100
AcDbLine
 10
635.556867130206
 20
996.86394960873145
 30
0.0
 11
430.556867130206
 21
996.86394960873145
 31
0.0
  0
LINE
  5
22F
100
AcDbEntity
  8
0
  6
Continuous
 62
               4
100
AcDbLine
 10
560.53551809029921
 20
842.99327609363968
 30
0.0
 11
536.36147346521011
 21
884.86394960873145
 31
0.0
  0
LINE
  5
230
100
AcDbEntity
  8
0
  6
Continuous
 62
               4
100
AcDbLine
 10
560.53551809029921
 20
842.99327609363968
 30
0.0
 11
556.29287740317989
 21
847.235916780759
 31
0.0
  0
LINE
  5
231
100
AcDbEntity
  8
0
  6
Continuous
 62
               4
100
AcDbLine
 10
560.53551809029921
 20
842.99327609363968
 30
0.0
 11
558.98260381968396
 21
848.78883105137413
 31
0.0
  0
LINE
  5
232
100
AcDbEntity
  8
0
  6
Continuous
 62
               4
100
AcDbLine
 10
536.36147346521011
 20
884.86394960873145
 30
0.0
 11
486.2626080138208
 21
884.86394960873145
 31
0.0
  0
LINE
  5
233
100
AcDbEntity
  8
0
  6
Continuous
 62
               4
100
AcDbLine
 10
961.55686713020611
 20
486.08639040986327
 30
0.0
 11
937.30815582424168
 21
444.08639040986327
 31
0.0
  0
LINE
  5
234
100
AcDbEntity
  8
0
  6
Continuous
 62
               4
100
AcDbLine
 10
961.55686713020611
 20
486.08639040986327
 30
0.0
 11
960.00395285959087
 21
480.29083545212882
 31
0.0
  0
LINE
  5
235
100
AcDbEntity
  8
0
  6
Continuous
 62
               4
100
AcDbLine
 10
961.55686713020611
 20
486.08639040986327
 30
0.0
 11
957.31422644308657
 21
481.84374972274395
 31
0.0
  0
LINE
  5
236
100
AcDbEntity
  8
0
  6
Continuous
 62
               4
100
AcDbLine
 10
937.30815582424168
 20
444.08639040986327
 30
0.0
 11
802.75775239420716
 21
444.08639040986327
 31
0.0
  0
LINE
  5
237
100
AcDbEntity
  8
0
  6
Continuous
 62
               4
100
AcDbLine
 10
1039.5568671302062
 20
451.08639040986327
 30
0.0
 11
1039.5568671302062
 21
351.08639040986327
 31
0.0
  0
LINE
  5
238
100
AcDbEntity
  8
0
  6
Continuous
 62
               4
100
AcDbLine
 10
984.63422569914098
 20
662.80000987267294
 30
0.0
 11
862.51562535881556
 21
662.80000987267294
 31
0.0
  0
LINE
  5
239
100
AcDbEntity
  8
0
  6
Continuous
 62
               4
100
AcDbLine
 10
589.61619764713726
 20
684.80761611709329
 30
0.0
 11
554.97518149575956
 21
624.80761611709329
 31
0.0
  0
LINE
  5
23A
100
AcDbEntity
  8
0
  6
Continuous
 62
               4
100
AcDbLine
 10
589.61619764713726
 20
684.80761611709329
 30
0.0
 11
588.06328337652201
 21
679.01206115935884
 31
0.0
  0
LINE
  5
23B
100
AcDbEntity
  8
0
  6
Continuous
 62
               4
100
AcDbLine
 10
589.61619764713726
 20
684.80761611709329
 30
0.0
 11
585.37355696001771
 21
680.56497542997397
 31
0.0
  0
LINE
  5
23C
100
AcDbEntity
  8
0
  6
Continuous
 62
               4
100
AcDbLine
 10
554.97518149575956
 20
624.80761611709329
 30
0.0
 11
424.01678935708719
 21
624.80761611709329
 31
0.0
  0
LINE
  5
23D
100
AcDbEntity
  8
0
  6
Continuous
 62
               4
100
AcDbLine
 10
1114.8509857576496
 20
908.20649949495078
 30
0.0
 11
1192.9126291571865
 21
917.39017140565852
 31
0.0
  0
LINE
  5
23E
100
AcDbEntity
  8
0
  6
Continuous
 62
               2
100
AcDbLine
 10
1174.5568671302067
 20
914.22378538862677
 30
0.0
 11
1192.4335793591076
 21
916.32691636054483
 31
0.0
  0
LINE
  5
23F
100
AcDbEntity
  8
0
  6
Continuous
 62
               4
100
AcDbLine
 10
1193.0995741324687
 20
915.80113031864516
 30
0.0
 11
1179.6564093276297
 21
913.74168378378931
 31
0.0
  0
LINE
  5
240
100
AcDbEntity
  8
0
  6
Continuous
 62
               2
100
AcDbLine
 10
1192.9710483623226
 20
915.18187178910489
 30
0.0
 11
1176.8059843341366
 21
912.41588101459956
 31
0.0
  0
LINE
  5
241
100
AcDbEntity
  8
0
  6
Continuous
 62
               4
100
AcDbLine
 10
1193.9057820358507
 20
920.93046056893354
 30
0.0
 11
1186.1241920327607
 21
987.07434177557252
 31
0.0
  0
LINE
  5
242
100
AcDbEntity
  8
0
  6
Continuous
 62
               4
100
AcDbLine
 10
1171.4021578951765
 20
941.03887025037511
 30
0.0
 11
1191.2651815176187
 21
943.37568923335152
 31
0.0
  0
LINE
  5
243
100
AcDbEntity
  8
0
  6
Continuous
 62
               4
100
AcDbLine
 10
1184.3715333144896
 20
916.38534216352014
 30
0.0
 11
1205.8723404478587
 21
953.62583252225545
 31
0.0
  0
LINE
  5
244
100
AcDbEntity
  8
0
  6
Continuous
 62
               4
100
AcDbLine
 10
1184.3715333144896
 20
916.38534216352014
 30
0.0
 11
1185.9244475851046
 21
922.18089712125447
 31
0.0
  0
LINE
  5
245
100
AcDbEntity
  8
0
  6
Continuous
 62
               4
100
AcDbLine
 10
1184.3715333144896
 20
916.38534216352014
 30
0.0
 11
1188.6141740016087
 21
920.62798285063946
 31
0.0
  0
LINE
  5
246
100
AcDbEntity
  8
0
  6
Continuous
 62
               4
100
AcDbLine
 10
1205.8723404478587
 20
953.62583252225545
 30
0.0
 11
1241.2537064819476
 21
953.62583252225545
 31
0.0
  0
LINE
  5
247
100
AcDbEntity
  8
0
  6
Continuous
 62
               6
100
AcDbLine
 10
1039.5568671302062
 20
481.08639040986327
 30
0.0
 11
1039.5568671302062
 21
346.26294306291641
 31
0.0
  0
LINE
  5
248
100
AcDbEntity
  8
0
  6
Continuous
 62
               4
100
AcDbLine
 10
822.10110651554203
 20
732.80000987267294
 30
0.0
 11
862.51562535881556
 21
662.80000987267294
 31
0.0
  0
LINE
  5
249
100
AcDbEntity
  8
0
  6
Continuous
 62
               4
100
AcDbLine
 10
822.10110651554203
 20
732.80000987267294
 30
0.0
 11
826.34374720266112
 21
728.55736918555363
 31
0.0
  0
LINE
  5
24A
100
AcDbEntity
  8
0
  6
Continuous
 62
               4
100
AcDbLine
 10
822.10110651554203
 20
732.80000987267294
 30
0.0
 11
823.65402078615705
 21
727.00445491493849
 31
0.0
  0
LINE
  5
24B
100
AcDbEntity
  8
0
  6
Continuous
 62
               4
100
AcDbLine
 10
1025.5568671302062
 20
748.8186078855
 30
0.0
 11
1025.5568671302062
 21
774.8186078855
 31
0.0
  0
LINE
  5
24C
100
AcDbEntity
  8
0
  6
Continuous
 62
               4
100
AcDbLine
 10
1025.5568671302062
 20
750.8186078855
 30
0.0
 11
1045.5568671302062
 21
750.8186078855
 31
0.0
  0
LINE
  5
24D
100
AcDbEntity
  8
0
  6
Continuous
 62
               7
100
AcDbLine
 10
1127.0568671302062
 20
774.86394960873133
 30
0.0
 11
1172.0568671302067
 21
774.86394960873133
 31
0.0
  0
LINE
  5
24E
100
AcDbEntity
  8
0
  6
Continuous
 62
               7
100
AcDbLine
 10
1127.0568671302062
 20
770.86394960873133
 30
0.0
 11
1172.0568671302067
 21
770.86394960873133
 31
0.0
  0
LINE
  5
24F
100
AcDbEntity
  8
0
  6
Continuous
 62
               7
100
AcDbLine
 10
1174.0568671302067
 20
776.36394960873133
 30
0.0
 11
1174.0568671302067
 21
769.36394960873133
 31
0.0
  0
LINE
  5
250
100
AcDbEntity
  8
0
  6
Continuous
 62
               7
100
AcDbLine
 10
1172.0568671302067
 20
774.86394960873133
 30
0.0
 11
1172.0568671302067
 21
770.86394960873133
 31
0.0
  0
LINE
  5
251
100
AcDbEntity
  8
0
  6
Continuous
 62
               7
100
AcDbLine
 10
1172.0568671302067
 20
774.86394960873133
 30
0.0
 11
1174.0568671302067
 21
776.36394960873133
 31
0.0
  0
LINE
  5
252
100
AcDbEntity
  8
0
  6
Continuous
 62
               7
100
AcDbLine
 10
1174.0568671302067
 20
769.36394960873133
 30
0.0
 11
1172.0568671302067
 21
770.86394960873133
 31
0.0
  0
LINE
  5
253
100
AcDbEntity
  8
0
  6
Continuous
 62
               7
100
AcDbLine
 10
1124.0568671302062
 20
772.86394960873133
 30
0.0
 11
1127.0568671302062
 21
774.86394960873133
 31
0.0
  0
LINE
  5
254
100
AcDbEntity
  8
0
  6
Continuous
 62
               7
100
AcDbLine
 10
1124.0568671302062
 20
772.86394960873133
 30
0.0
 11
1127.0568671302062
 21
770.86394960873133
 31
0.0
  0
LINE
  5
255
100
AcDbEntity
  8
0
  6
Continuous
 62
               7
100
AcDbLine
 10
1156.0568671302067
 20
774.86394960873133
 30
0.0
 11
1158.0568671302067
 21
770.86394960873133
 31
0.0
  0
LINE
  5
256
100
AcDbEntity
  8
0
  6
Continuous
 62
               7
100
AcDbLine
 10
1162.0568671302067
 20
770.86394960873133
 30
0.0
 11
1160.0568671302067
 21
774.86394960873133
 31
0.0
  0
LINE
  5
257
100
AcDbEntity
  8
0
  6
Continuous
 62
               7
100
AcDbLine
 10
1160.0568671302067
 20
770.86394960873133
 30
0.0
 11
1158.0568671302067
 21
774.86394960873133
 31
0.0
  0
LINE
  5
258
100
AcDbEntity
  8
0
  6
Continuous
 62
               7
100
AcDbLine
 10
1162.0568671302067
 20
774.86394960873133
 30
0.0
 11
1164.0568671302067
 21
770.86394960873133
 31
0.0
  0
LINE
  5
259
100
AcDbEntity
  8
0
  6
Continuous
 62
               7
100
AcDbLine
 10
1152.0568671302067
 20
774.86394960873133
 30
0.0
 11
1154.0568671302067
 21
770.86394960873133
 31
0.0
  0
LINE
  5
25A
100
AcDbEntity
  8
0
  6
Continuous
 62
               7
100
AcDbLine
 10
1156.0568671302067
 20
770.86394960873133
 30
0.0
 11
1154.0568671302067
 21
774.86394960873133
 31
0.0
  0
LINE
  5
25B
100
AcDbEntity
  8
0
  6
Continuous
 62
               7
100
AcDbLine
 10
1148.0568671302062
 20
774.86394960873133
 30
0.0
 11
1150.0568671302067
 21
770.86394960873133
 31
0.0
  0
LINE
  5
25C
100
AcDbEntity
  8
0
  6
Continuous
 62
               7
100
AcDbLine
 10
1152.0568671302067
 20
770.86394960873133
 30
0.0
 11
1150.0568671302067
 21
774.86394960873133
 31
0.0
  0
LINE
  5
25D
100
AcDbEntity
  8
0
  6
Continuous
 62
               7
100
AcDbLine
 10
1144.0568671302062
 20
774.86394960873133
 30
0.0
 11
1146.0568671302062
 21
770.86394960873133
 31
0.0
  0
LINE
  5
25E
100
AcDbEntity
  8
0
  6
Continuous
 62
               7
100
AcDbLine
 10
1148.0568671302062
 20
770.86394960873133
 30
0.0
 11
1146.0568671302062
 21
774.86394960873133
 31
0.0
  0
LINE
  5
25F
100
AcDbEntity
  8
0
  6
Continuous
 62
               7
100
AcDbLine
 10
1140.0568671302062
 20
774.86394960873133
 30
0.0
 11
1142.0568671302062
 21
770.86394960873133
 31
0.0
  0
LINE
  5
260
100
AcDbEntity
  8
0
  6
Continuous
 62
               7
100
AcDbLine
 10
1144.0568671302062
 20
770.86394960873133
 30
0.0
 11
1142.0568671302062
 21
774.86394960873133
 31
0.0
  0
LINE
  5
261
100
AcDbEntity
  8
0
  6
Continuous
 62
               7
100
AcDbLine
 10
1136.0568671302062
 20
774.86394960873122
 30
0.0
 11
1138.0568671302062
 21
770.86394960873122
 31
0.0
  0
LINE
  5
262
100
AcDbEntity
  8
0
  6
Continuous
 62
               7
100
AcDbLine
 10
1140.0568671302062
 20
770.86394960873122
 30
0.0
 11
1138.0568671302062
 21
774.86394960873122
 31
0.0
  0
LINE
  5
263
100
AcDbEntity
  8
0
  6
Continuous
 62
               7
100
AcDbLine
 10
1132.0568671302062
 20
774.86394960873122
 30
0.0
 11
1134.0568671302062
 21
770.86394960873122
 31
0.0
  0
LINE
  5
264
100
AcDbEntity
  8
0
  6
Continuous
 62
               7
100
AcDbLine
 10
1136.0568671302062
 20
770.86394960873122
 30
0.0
 11
1134.0568671302062
 21
774.86394960873122
 31
0.0
  0
LINE
  5
265
100
AcDbEntity
  8
0
  6
Continuous
 62
               7
100
AcDbLine
 10
1128.0568671302062
 20
774.86394960873122
 30
0.0
 11
1130.0568671302062
 21
770.86394960873122
 31
0.0
  0
LINE
  5
266
100
AcDbEntity
  8
0
  6
Continuous
 62
               7
100
AcDbLine
 10
1132.0568671302062
 20
770.86394960873122
 30
0.0
 11
1130.0568671302062
 21
774.86394960873122
 31
0.0
  0
LINE
  5
267
100
AcDbEntity
  8
0
  6
Continuous
 62
               7
100
AcDbLine
 10
1124.8068671302062
 20
773.36394960873133
 30
0.0
 11
1125.5568671302062
 21
771.86394960873145
 31
0.0
  0
LINE
  5
268
100
AcDbEntity
  8
0
  6
Continuous
 62
               7
100
AcDbLine
 10
1128.0568671302062
 20
770.86394960873122
 30
0.0
 11
1126.3068671302062
 21
774.36394960873133
 31
0.0
  0
LINE
  5
269
100
AcDbEntity
  8
0
  6
DASHDOT
 62
               7
100
AcDbLine
 10
1121.0568671302062
 20
547.86394960873133
 30
0.0
 11
1174.5568671302067
 21
547.86394960873133
 31
0.0
  0
LINE
  5
26A
100
AcDbEntity
  8
0
  6
Continuous
 62
               7
100
AcDbLine
 10
1127.0568671302062
 20
549.86394960873133
 30
0.0
 11
1172.0568671302067
 21
549.86394960873133
 31
0.0
  0
LINE
  5
26B
100
AcDbEntity
  8
0
  6
Continuous
 62
               7
100
AcDbLine
 10
1127.0568671302062
 20
545.86394960873133
 30
0.0
 11
1172.0568671302067
 21
545.86394960873133
 31
0.0
  0
LINE
  5
26C
100
AcDbEntity
  8
0
  6
Continuous
 62
               7
100
AcDbLine
 10
1174.0568671302067
 20
551.36394960873133
 30
0.0
 11
1174.0568671302067
 21
544.36394960873133
 31
0.0
  0
LINE
  5
26D
100
AcDbEntity
  8
0
  6
Continuous
 62
               7
100
AcDbLine
 10
1172.0568671302067
 20
549.86394960873133
 30
0.0
 11
1172.0568671302067
 21
545.86394960873133
 31
0.0
  0
LINE
  5
26E
100
AcDbEntity
  8
0
  6
Continuous
 62
               7
100
AcDbLine
 10
1172.0568671302067
 20
549.86394960873133
 30
0.0
 11
1174.0568671302067
 21
551.36394960873133
 31
0.0
  0
LINE
  5
26F
100
AcDbEntity
  8
0
  6
Continuous
 62
               7
100
AcDbLine
 10
1174.0568671302067
 20
544.36394960873133
 30
0.0
 11
1172.0568671302067
 21
545.86394960873133
 31
0.0
  0
LINE
  5
270
100
AcDbEntity
  8
0
  6
Continuous
 62
               7
100
AcDbLine
 10
1124.0568671302062
 20
547.86394960873133
 30
0.0
 11
1127.0568671302062
 21
549.86394960873133
 31
0.0
  0
LINE
  5
271
100
AcDbEntity
  8
0
  6
Continuous
 62
               7
100
AcDbLine
 10
1124.0568671302062
 20
547.86394960873133
 30
0.0
 11
1127.0568671302062
 21
545.86394960873133
 31
0.0
  0
LINE
  5
272
100
AcDbEntity
  8
0
  6
Continuous
 62
               7
100
AcDbLine
 10
1156.0568671302067
 20
549.86394960873133
 30
0.0
 11
1158.0568671302067
 21
545.86394960873133
 31
0.0
  0
LINE
  5
273
100
AcDbEntity
  8
0
  6
Continuous
 62
               7
100
AcDbLine
 10
1162.0568671302067
 20
545.86394960873133
 30
0.0
 11
1160.0568671302067
 21
549.86394960873133
 31
0.0
  0
LINE
  5
274
100
AcDbEntity
  8
0
  6
Continuous
 62
               7
100
AcDbLine
 10
1160.0568671302067
 20
545.86394960873133
 30
0.0
 11
1158.0568671302067
 21
549.86394960873133
 31
0.0
  0
LINE
  5
275
100
AcDbEntity
  8
0
  6
Continuous
 62
               7
100
AcDbLine
 10
1162.0568671302067
 20
549.86394960873133
 30
0.0
 11
1164.0568671302067
 21
545.86394960873133
 31
0.0
  0
LINE
  5
276
100
AcDbEntity
  8
0
  6
Continuous
 62
               7
100
AcDbLine
 10
1152.0568671302067
 20
549.86394960873133
 30
0.0
 11
1154.0568671302067
 21
545.86394960873133
 31
0.0
  0
LINE
  5
277
100
AcDbEntity
  8
0
  6
Continuous
 62
               7
100
AcDbLine
 10
1156.0568671302067
 20
545.86394960873133
 30
0.0
 11
1154.0568671302067
 21
549.86394960873133
 31
0.0
  0
LINE
  5
278
100
AcDbEntity
  8
0
  6
Continuous
 62
               7
100
AcDbLine
 10
1148.0568671302062
 20
549.86394960873133
 30
0.0
 11
1150.0568671302067
 21
545.86394960873133
 31
0.0
  0
LINE
  5
279
100
AcDbEntity
  8
0
  6
Continuous
 62
               7
100
AcDbLine
 10
1152.0568671302067
 20
545.86394960873133
 30
0.0
 11
1150.0568671302067
 21
549.86394960873133
 31
0.0
  0
LINE
  5
27A
100
AcDbEntity
  8
0
  6
Continuous
 62
               7
100
AcDbLine
 10
1144.0568671302062
 20
549.86394960873133
 30
0.0
 11
1146.0568671302062
 21
545.86394960873133
 31
0.0
  0
LINE
  5
27B
100
AcDbEntity
  8
0
  6
Continuous
 62
               7
100
AcDbLine
 10
1148.0568671302062
 20
545.86394960873133
 30
0.0
 11
1146.0568671302062
 21
549.86394960873133
 31
0.0
  0
LINE
  5
27C
100
AcDbEntity
  8
0
  6
Continuous
 62
               7
100
AcDbLine
 10
1140.0568671302062
 20
549.86394960873122
 30
0.0
 11
1142.0568671302062
 21
545.86394960873122
 31
0.0
  0
LINE
  5
27D
100
AcDbEntity
  8
0
  6
Continuous
 62
               7
100
AcDbLine
 10
1144.0568671302062
 20
545.86394960873122
 30
0.0
 11
1142.0568671302062
 21
549.86394960873122
 31
0.0
  0
LINE
  5
27E
100
AcDbEntity
  8
0
  6
Continuous
 62
               7
100
AcDbLine
 10
1136.0568671302062
 20
549.86394960873122
 30
0.0
 11
1138.0568671302062
 21
545.86394960873122
 31
0.0
  0
LINE
  5
27F
100
AcDbEntity
  8
0
  6
Continuous
 62
               7
100
AcDbLine
 10
1140.0568671302062
 20
545.86394960873122
 30
0.0
 11
1138.0568671302062
 21
549.86394960873122
 31
0.0
  0
LINE
  5
280
100
AcDbEntity
  8
0
  6
Continuous
 62
               7
100
AcDbLine
 10
1132.0568671302062
 20
549.86394960873122
 30
0.0
 11
1134.0568671302062
 21
545.86394960873122
 31
0.0
  0
LINE
  5
281
100
AcDbEntity
  8
0
  6
Continuous
 62
               7
100
AcDbLine
 10
1136.0568671302062
 20
545.86394960873122
 30
0.0
 11
1134.0568671302062
 21
549.86394960873122
 31
0.0
  0
LINE
  5
282
100
AcDbEntity
  8
0
  6
Continuous
 62
               7
100
AcDbLine
 10
1128.0568671302062
 20
549.86394960873122
 30
0.0
 11
1130.0568671302062
 21
545.86394960873122
 31
0.0
  0
LINE
  5
283
100
AcDbEntity
  8
0
  6
Continuous
 62
               7
100
AcDbLine
 10
1132.0568671302062
 20
545.86394960873122
 30
0.0
 11
1130.0568671302062
 21
549.86394960873122
 31
0.0
  0
LINE
  5
284
100
AcDbEntity
  8
0
  6
Continuous
 62
               7
100
AcDbLine
 10
1124.8068671302062
 20
548.36394960873133
 30
0.0
 11
1125.5568671302062
 21
546.86394960873145
 31
0.0
  0
LINE
  5
285
100
AcDbEntity
  8
0
  6
Continuous
 62
               7
100
AcDbLine
 10
1128.0568671302062
 20
545.86394960873122
 30
0.0
 11
1126.3068671302062
 21
549.36394960873133
 31
0.0
  0
LINE
  5
286
100
AcDbEntity
  8
0
  6
Continuous
 62
               7
100
AcDbLine
 10
1171.5568671302067
 20
906.11669181954471
 30
0.0
 11
1171.5568671302067
 21
346.26294306291641
 31
0.0
  0
LINE
  5
287
100
AcDbEntity
  8
0
  6
Continuous
 62
               7
100
AcDbLine
 10
1171.5568671302067
 20
906.82257026463731
 30
0.0
 11
1170.8558234729007
 21
912.78147434093785
 31
0.0
  0
LINE
  5
288
100
AcDbEntity
  8
0
  6
Continuous
 62
               7
100
AcDbLine
 10
1165.5568671302067
 20
906.11669181954471
 30
0.0
 11
1171.5568671302067
 21
906.11669181954471
 31
0.0
  0
LINE
  5
289
100
AcDbEntity
  8
0
  6
DASHDOT
 62
               7
100
AcDbLine
 10
1140.848131346745
 20
858.40290101834046
 30
0.0
 11
1134.5971587357672
 21
911.53646236535405
 31
0.0
  0
LINE
  5
28A
100
AcDbEntity
  8
0
  6
Continuous
 62
               7
100
AcDbLine
 10
1138.1607863306722
 20
864.12812387553902
 30
0.0
 11
1132.9029589008778
 21
908.81990444779331
 31
0.0
  0
LINE
  5
28B
100
AcDbEntity
  8
0
  6
Continuous
 62
               7
100
AcDbLine
 10
1142.1333890482056
 20
864.59548631374298
 30
0.0
 11
1136.8755616184117
 21
909.28726688599727
 31
0.0
  0
LINE
  5
28C
100
AcDbEntity
  8
0
  6
Continuous
 62
               7
100
AcDbLine
 10
1131.1795516627008
 20
910.63094489223386
 30
0.0
 11
1138.1316064183848
 21
911.44882915909079
 31
0.0
  0
LINE
  5
28D
100
AcDbEntity
  8
0
  6
Continuous
 62
               7
100
AcDbLine
 10
1132.9029589008778
 20
908.81990444779331
 30
0.0
 11
1136.8755616184117
 21
909.28726688599727
 31
0.0
  0
LINE
  5
28E
100
AcDbEntity
  8
0
  6
Continuous
 62
               7
100
AcDbLine
 10
1132.9029589008778
 20
908.81990444779331
 30
0.0
 11
1131.1795516627008
 21
910.63094489223386
 31
0.0
  0
LINE
  5
28F
100
AcDbEntity
  8
0
  6
Continuous
 62
               7
100
AcDbLine
 10
1138.1316064183848
 20
911.44882915909079
 30
0.0
 11
1136.8755616184117
 21
909.28726688599727
 31
0.0
  0
LINE
  5
290
100
AcDbEntity
  8
0
  6
Continuous
 62
               7
100
AcDbLine
 10
1140.4976095180918
 20
861.38235305649084
 30
0.0
 11
1138.1607863306722
 21
864.12812387553902
 31
0.0
  0
LINE
  5
291
100
AcDbEntity
  8
0
  6
Continuous
 62
               7
100
AcDbLine
 10
1140.4976095180918
 20
861.38235305649084
 30
0.0
 11
1142.1333890482056
 21
864.59548631374298
 31
0.0
  0
LINE
  5
292
100
AcDbEntity
  8
0
  6
Continuous
 62
               7
100
AcDbLine
 10
1134.7724086536937
 20
892.92949357765838
 30
0.0
 11
1138.5113301521255
 21
895.38315737462904
 31
0.0
  0
LINE
  5
293
100
AcDbEntity
  8
0
  6
Continuous
 62
               7
100
AcDbLine
 10
1138.0439677139216
 20
899.35576009216288
 30
0.0
 11
1134.3050462154897
 21
896.902096295192
 31
0.0
  0
LINE
  5
294
100
AcDbEntity
  8
0
  6
Continuous
 62
               7
100
AcDbLine
 10
1138.2776489330236
 20
897.36945873339596
 30
0.0
 11
1134.5387274345917
 21
894.91579493642507
 31
0.0
  0
LINE
  5
295
100
AcDbEntity
  8
0
  6
Continuous
 62
               7
100
AcDbLine
 10
1134.0713649963877
 20
898.88839765395892
 30
0.0
 11
1137.8102864948196
 21
901.34206145092958
 31
0.0
  0
LINE
  5
296
100
AcDbEntity
  8
0
  6
Continuous
 62
               7
100
AcDbLine
 10
1135.2397710918976
 20
888.95689086012476
 30
0.0
 11
1138.9786925903295
 21
891.41055465709542
 31
0.0
  0
LINE
  5
297
100
AcDbEntity
  8
0
  6
Continuous
 62
               7
100
AcDbLine
 10
1138.7450113712275
 20
893.39685601586234
 30
0.0
 11
1135.0060898727957
 21
890.94319221889168
 31
0.0
  0
LINE
  5
298
100
AcDbEntity
  8
0
  6
Continuous
 62
               7
100
AcDbLine
 10
1135.7071335301016
 20
884.98428814259091
 30
0.0
 11
1139.4460550285335
 21
887.4379519395618
 31
0.0
  0
LINE
  5
299
100
AcDbEntity
  8
0
  6
Continuous
 62
               7
100
AcDbLine
 10
1139.2123738094315
 20
889.42425329832872
 30
0.0
 11
1135.4734523109996
 21
886.97058950135784
 31
0.0
  0
LINE
  5
29A
100
AcDbEntity
  8
0
  6
Continuous
 62
               7
100
AcDbLine
 10
1136.1744959683056
 20
881.01168542505729
 30
0.0
 11
1139.9134174667374
 21
883.46534922202818
 31
0.0
  0
LINE
  5
29B
100
AcDbEntity
  8
0
  6
Continuous
 62
               7
100
AcDbLine
 10
1139.679736247635
 20
885.45165058079488
 30
0.0
 11
1135.9408147492036
 21
882.99798678382422
 31
0.0
  0
LINE
  5
29C
100
AcDbEntity
  8
0
  6
Continuous
 62
               7
100
AcDbLine
 10
1136.6418584065095
 20
877.03908270752368
 30
0.0
 11
1140.3807799049414
 21
879.49274650449433
 31
0.0
  0
LINE
  5
29D
100
AcDbEntity
  8
0
  6
Continuous
 62
               7
100
AcDbLine
 10
1140.147098685839
 20
881.47904786326126
 30
0.0
 11
1136.4081771874075
 21
879.02538406629037
 31
0.0
  0
LINE
  5
29E
100
AcDbEntity
  8
0
  6
Continuous
 62
               7
100
AcDbLine
 10
1137.1092208447135
 20
873.06647998998983
 30
0.0
 11
1140.8481423431449
 21
875.52014378696072
 31
0.0
  0
LINE
  5
29F
100
AcDbEntity
  8
0
  6
Continuous
 62
               7
100
AcDbLine
 10
1140.6144611240429
 20
877.50644514572764
 30
0.0
 11
1136.8755396256115
 21
875.05278134875675
 31
0.0
  0
LINE
  5
2A0
100
AcDbEntity
  8
0
  6
Continuous
 62
               7
100
AcDbLine
 10
1137.5765832829175
 20
869.09387727245621
 30
0.0
 11
1141.3155047813489
 21
871.5475410694271
 31
0.0
  0
LINE
  5
2A1
100
AcDbEntity
  8
0
  6
Continuous
 62
               7
100
AcDbLine
 10
1141.0818235622469
 20
873.53384242819379
 30
0.0
 11
1137.3429020638155
 21
871.08017863122313
 31
0.0
  0
LINE
  5
2A2
100
AcDbEntity
  8
0
  6
Continuous
 62
               7
100
AcDbLine
 10
1138.0439457211214
 20
865.12127455492248
 30
0.0
 11
1141.7828672195528
 21
867.57493835189325
 31
0.0
  0
LINE
  5
2A3
100
AcDbEntity
  8
0
  6
Continuous
 62
               7
100
AcDbLine
 10
1141.5491860004508
 20
869.56123971066017
 30
0.0
 11
1137.8102645020194
 21
867.10757591368929
 31
0.0
  0
LINE
  5
2A4
100
AcDbEntity
  8
0
  6
Continuous
 62
               7
100
AcDbLine
 10
1139.913403721237
 20
862.06879576125277
 30
0.0
 11
1141.3154992831487
 21
862.9889196851168
 31
0.0
  0
LINE
  5
2A5
100
AcDbEntity
  8
0
  6
Continuous
 62
               7
100
AcDbLine
 10
1142.0165484386548
 20
865.58863699312644
 30
0.0
 11
1138.744992127527
 21
863.44168117077697
 31
0.0
  0
LINE
  5
2A6
100
AcDbEntity
  8
0
  6
DASHDOT
 62
               7
100
AcDbLine
 10
795.09430634991338
 20
817.72620562273733
 30
0.0
 11
788.84333373893548
 21
870.85976696975081
 31
0.0
  0
LINE
  5
2A7
100
AcDbEntity
  8
0
  6
Continuous
 62
               7
100
AcDbLine
 10
792.40696133384051
 20
823.45142847993588
 30
0.0
 11
787.14913390404615
 21
868.14320905219006
 31
0.0
  0
LINE
  5
2A8
100
AcDbEntity
  8
0
  6
Continuous
 62
               7
100
AcDbLine
 10
796.37956405137413
 20
823.91879091813985
 30
0.0
 11
791.12173662158
 21
868.61057149039402
 31
0.0
  0
LINE
  5
2A9
100
AcDbEntity
  8
0
  6
Continuous
 62
               7
100
AcDbLine
 10
785.42572666586909
 20
869.95424949663061
 30
0.0
 11
792.3777814215531
 21
870.77213376348755
 31
0.0
  0
LINE
  5
2AA
100
AcDbEntity
  8
0
  6
Continuous
 62
               7
100
AcDbLine
 10
787.14913390404615
 20
868.14320905219006
 30
0.0
 11
791.12173662158
 21
868.61057149039402
 31
0.0
  0
LINE
  5
2AB
100
AcDbEntity
  8
0
  6
Continuous
 62
               7
100
AcDbLine
 10
787.14913390404615
 20
868.14320905219006
 30
0.0
 11
785.42572666586909
 21
869.95424949663061
 31
0.0
  0
LINE
  5
2AC
100
AcDbEntity
  8
0
  6
Continuous
 62
               7
100
AcDbLine
 10
792.3777814215531
 20
870.77213376348755
 30
0.0
 11
791.12173662158
 21
868.61057149039402
 31
0.0
  0
LINE
  5
2AD
100
AcDbEntity
  8
0
  6
Continuous
 62
               7
100
AcDbLine
 10
794.74378452126018
 20
820.7056576608876
 30
0.0
 11
792.40696133384051
 21
823.45142847993588
 31
0.0
  0
LINE
  5
2AE
100
AcDbEntity
  8
0
  6
Continuous
 62
               7
100
AcDbLine
 10
794.74378452126018
 20
820.7056576608876
 30
0.0
 11
796.37956405137413
 21
823.91879091813985
 31
0.0
  0
LINE
  5
2AF
100
AcDbEntity
  8
0
  6
Continuous
 62
               7
100
AcDbLine
 10
789.01858365686201
 20
852.25279818205513
 30
0.0
 11
792.75750515529387
 21
854.7064619790259
 31
0.0
  0
LINE
  5
2B0
100
AcDbEntity
  8
0
  6
Continuous
 62
               7
100
AcDbLine
 10
792.29014271708991
 20
858.67906469655964
 30
0.0
 11
788.55122121865804
 21
856.22540089958886
 31
0.0
  0
LINE
  5
2B1
100
AcDbEntity
  8
0
  6
Continuous
 62
               7
100
AcDbLine
 10
792.52382393619189
 20
856.69276333779283
 30
0.0
 11
788.78490243776002
 21
854.23909954082194
 31
0.0
  0
LINE
  5
2B2
100
AcDbEntity
  8
0
  6
Continuous
 62
               7
100
AcDbLine
 10
788.31753999955606
 20
858.21170225835567
 30
0.0
 11
792.05646149798793
 21
860.66536605532644
 31
0.0
  0
LINE
  5
2B3
100
AcDbEntity
  8
0
  6
Continuous
 62
               7
100
AcDbLine
 10
789.48594609506597
 20
848.2801954645214
 30
0.0
 11
793.22486759349783
 21
850.73385926149228
 31
0.0
  0
LINE
  5
2B4
100
AcDbEntity
  8
0
  6
Continuous
 62
               7
100
AcDbLine
 10
792.99118637439585
 20
852.72016062025909
 30
0.0
 11
789.25226487596399
 21
850.26649682328832
 31
0.0
  0
LINE
  5
2B5
100
AcDbEntity
  8
0
  6
Continuous
 62
               7
100
AcDbLine
 10
789.95330853326993
 20
844.30759274698778
 30
0.0
 11
793.6922300317018
 21
846.76125654395855
 31
0.0
  0
LINE
  5
2B6
100
AcDbEntity
  8
0
  6
Continuous
 62
               7
100
AcDbLine
 10
793.45854881259982
 20
848.74755790272548
 30
0.0
 11
789.71962731416795
 21
846.29389410575459
 31
0.0
  0
LINE
  5
2B7
100
AcDbEntity
  8
0
  6
Continuous
 62
               7
100
AcDbLine
 10
790.4206709714739
 20
840.33499002945405
 30
0.0
 11
794.15959246990576
 21
842.78865382642493
 31
0.0
  0
LINE
  5
2B8
100
AcDbEntity
  8
0
  6
Continuous
 62
               7
100
AcDbLine
 10
793.92591125080378
 20
844.77495518519163
 30
0.0
 11
790.18698975237191
 21
842.32129138822086
 31
0.0
  0
LINE
  5
2B9
100
AcDbEntity
  8
0
  6
Continuous
 62
               7
100
AcDbLine
 10
790.88803340967786
 20
836.36238731192043
 30
0.0
 11
794.62695490810972
 21
838.8160511088912
 31
0.0
  0
LINE
  5
2BA
100
AcDbEntity
  8
0
  6
Continuous
 62
               7
100
AcDbLine
 10
794.39327368900751
 20
840.80235246765801
 30
0.0
 11
790.65435219057588
 21
838.34868867068724
 31
0.0
  0
LINE
  5
2BB
100
AcDbEntity
  8
0
  6
Continuous
 62
               7
100
AcDbLine
 10
791.35539584788182
 20
832.3897845943867
 30
0.0
 11
795.09431734631346
 21
834.84344839135747
 31
0.0
  0
LINE
  5
2BC
100
AcDbEntity
  8
0
  6
Continuous
 62
               7
100
AcDbLine
 10
794.86063612721171
 20
836.82974975012428
 30
0.0
 11
791.12171462877984
 21
834.37608595315362
 31
0.0
  0
LINE
  5
2BD
100
AcDbEntity
  8
0
  6
Continuous
 62
               7
100
AcDbLine
 10
791.82275828608579
 20
828.41718187685308
 30
0.0
 11
795.56167978451742
 21
830.87084567382385
 31
0.0
  0
LINE
  5
2BE
100
AcDbEntity
  8
0
  6
Continuous
 62
               7
100
AcDbLine
 10
795.32799856541544
 20
832.85714703259066
 30
0.0
 11
791.5890770669838
 21
830.40348323561989
 31
0.0
  0
LINE
  5
2BF
100
AcDbEntity
  8
0
  6
Continuous
 62
               7
100
AcDbLine
 10
792.29012072428975
 20
824.44457915931935
 30
0.0
 11
796.02904222272139
 21
826.89824295629012
 31
0.0
  0
LINE
  5
2C0
100
AcDbEntity
  8
0
  6
Continuous
 62
               7
100
AcDbLine
 10
795.7953610036194
 20
828.88454431505693
 30
0.0
 11
792.05643950518777
 21
826.43088051808616
 31
0.0
  0
LINE
  5
2C1
100
AcDbEntity
  8
0
  6
Continuous
 62
               7
100
AcDbLine
 10
794.15957872440538
 20
821.39210036564964
 30
0.0
 11
795.56167428631704
 21
822.31222428951367
 31
0.0
  0
LINE
  5
2C2
100
AcDbEntity
  8
0
  6
Continuous
 62
               7
100
AcDbLine
 10
796.26272344182314
 20
824.91194159752331
 30
0.0
 11
792.99116713069554
 21
822.76498577517373
 31
0.0
  0
LINE
  5
2C3
100
AcDbEntity
  8
0
  6
DASHDOT
 62
               7
100
AcDbLine
 10
571.63540348864342
 20
791.43706847376473
 30
0.0
 11
565.38443087766575
 21
844.57062982077821
 31
0.0
  0
LINE
  5
2C4
100
AcDbEntity
  8
0
  6
Continuous
 62
               7
100
AcDbLine
 10
568.94805847257055
 20
797.16229133096328
 30
0.0
 11
563.69023104277642
 21
841.85407190321735
 31
0.0
  0
LINE
  5
2C5
100
AcDbEntity
  8
0
  6
Continuous
 62
               7
100
AcDbLine
 10
572.92066119010428
 20
797.62965376916713
 30
0.0
 11
567.66283376031026
 21
842.32143434142131
 31
0.0
  0
LINE
  5
2C6
100
AcDbEntity
  8
0
  6
Continuous
 62
               7
100
AcDbLine
 10
561.96682380459936
 20
843.66511234765801
 30
0.0
 11
568.91887856028336
 21
844.48299661451483
 31
0.0
  0
LINE
  5
2C7
100
AcDbEntity
  8
0
  6
Continuous
 62
               7
100
AcDbLine
 10
563.69023104277642
 20
841.85407190321735
 30
0.0
 11
567.66283376031026
 21
842.32143434142131
 31
0.0
  0
LINE
  5
2C8
100
AcDbEntity
  8
0
  6
Continuous
 62
               7
100
AcDbLine
 10
563.69023104277642
 20
841.85407190321735
 30
0.0
 11
561.96682380459936
 21
843.66511234765801
 31
0.0
  0
LINE
  5
2C9
100
AcDbEntity
  8
0
  6
Continuous
 62
               7
100
AcDbLine
 10
568.91887856028336
 20
844.48299661451483
 30
0.0
 11
567.66283376031026
 21
842.32143434142131
 31
0.0
  0
LINE
  5
2CA
100
AcDbEntity
  8
0
  6
Continuous
 62
               7
100
AcDbLine
 10
571.28488165999045
 20
794.416520511915
 30
0.0
 11
568.94805847257055
 21
797.16229133096328
 31
0.0
  0
LINE
  5
2CB
100
AcDbEntity
  8
0
  6
Continuous
 62
               7
100
AcDbLine
 10
571.28488165999045
 20
794.416520511915
 30
0.0
 11
572.92066119010428
 21
797.62965376916713
 31
0.0
  0
LINE
  5
2CC
100
AcDbEntity
  8
0
  6
Continuous
 62
               7
100
AcDbLine
 10
565.55968079559204
 20
825.96366103308253
 30
0.0
 11
569.29860229402391
 21
828.4173248300533
 31
0.0
  0
LINE
  5
2CD
100
AcDbEntity
  8
0
  6
Continuous
 62
               7
100
AcDbLine
 10
568.83123985581994
 20
832.38992754758704
 30
0.0
 11
565.09231835738819
 21
829.93626375061626
 31
0.0
  0
LINE
  5
2CE
100
AcDbEntity
  8
0
  6
Continuous
 62
               7
100
AcDbLine
 10
569.06492107492193
 20
830.40362618882023
 30
0.0
 11
565.32599957649018
 21
827.94996239184934
 31
0.0
  0
LINE
  5
2CF
100
AcDbEntity
  8
0
  6
Continuous
 62
               7
100
AcDbLine
 10
564.85863713828633
 20
831.92256510938307
 30
0.0
 11
568.59755863671796
 21
834.37622890635384
 31
0.0
  0
LINE
  5
2D0
100
AcDbEntity
  8
0
  6
Continuous
 62
               7
100
AcDbLine
 10
566.02704323379623
 20
821.9910583155488
 30
0.0
 11
569.76596473222776
 21
824.44472211251968
 31
0.0
  0
LINE
  5
2D1
100
AcDbEntity
  8
0
  6
Continuous
 62
               7
100
AcDbLine
 10
569.53228351312578
 20
826.43102347128649
 30
0.0
 11
565.79336201469425
 21
823.97735967431572
 31
0.0
  0
LINE
  5
2D2
100
AcDbEntity
  8
0
  6
Continuous
 62
               7
100
AcDbLine
 10
566.49440567200008
 20
818.01845559801518
 30
0.0
 11
570.23332717043183
 21
820.47211939498595
 31
0.0
  0
LINE
  5
2D3
100
AcDbEntity
  8
0
  6
Continuous
 62
               7
100
AcDbLine
 10
569.99964595132985
 20
822.45842075375288
 30
0.0
 11
566.2607244528981
 21
820.00475695678199
 31
0.0
  0
LINE
  5
2D4
100
AcDbEntity
  8
0
  6
Continuous
 62
               7
100
AcDbLine
 10
566.96176811020393
 20
814.04585288048145
 30
0.0
 11
570.7006896086358
 21
816.49951667745222
 31
0.0
  0
LINE
  5
2D5
100
AcDbEntity
  8
0
  6
Continuous
 62
               7
100
AcDbLine
 10
570.4670083895337
 20
818.48581803621914
 30
0.0
 11
566.72808689110207
 21
816.03215423924826
 31
0.0
  0
LINE
  5
2D6
100
AcDbEntity
  8
0
  6
Continuous
 62
               7
100
AcDbLine
 10
567.4291305484079
 20
810.07325016294783
 30
0.0
 11
571.16805204683976
 21
812.5269139599186
 31
0.0
  0
LINE
  5
2D7
100
AcDbEntity
  8
0
  6
Continuous
 62
               7
100
AcDbLine
 10
570.93437082773767
 20
814.51321531868541
 30
0.0
 11
567.19544932930592
 21
812.05955152171464
 31
0.0
  0
LINE
  5
2D8
100
AcDbEntity
  8
0
  6
Continuous
 62
               7
100
AcDbLine
 10
567.89649298661186
 20
806.1006474454141
 30
0.0
 11
571.63541448504361
 21
808.55431124238487
 31
0.0
  0
LINE
  5
2D9
100
AcDbEntity
  8
0
  6
Continuous
 62
               7
100
AcDbLine
 10
571.40173326594152
 20
810.54061260115168
 30
0.0
 11
567.66281176750999
 21
808.08694880418102
 31
0.0
  0
LINE
  5
2DA
100
AcDbEntity
  8
0
  6
Continuous
 62
               7
100
AcDbLine
 10
568.36385542481582
 20
802.12804472788048
 30
0.0
 11
572.10277692324746
 21
804.58170852485125
 31
0.0
  0
LINE
  5
2DB
100
AcDbEntity
  8
0
  6
Continuous
 62
               7
100
AcDbLine
 10
571.86909570414559
 20
806.56800988361806
 30
0.0
 11
568.13017420571384
 21
804.11434608664729
 31
0.0
  0
LINE
  5
2DC
100
AcDbEntity
  8
0
  6
Continuous
 62
               7
100
AcDbLine
 10
568.83121786301967
 20
798.15544201034675
 30
0.0
 11
572.57013936145142
 21
800.60910580731752
 31
0.0
  0
LINE
  5
2DD
100
AcDbEntity
  8
0
  6
Continuous
 62
               7
100
AcDbLine
 10
572.33645814234944
 20
802.59540716608433
 30
0.0
 11
568.59753664391781
 21
800.14174336911356
 31
0.0
  0
LINE
  5
2DE
100
AcDbEntity
  8
0
  6
Continuous
 62
               7
100
AcDbLine
 10
570.70067586313542
 20
795.10296321667693
 30
0.0
 11
572.10277142504731
 21
796.02308714054107
 31
0.0
  0
LINE
  5
2DF
100
AcDbEntity
  8
0
  6
Continuous
 62
               7
100
AcDbLine
 10
572.80382058055341
 20
798.6228044485506
 30
0.0
 11
569.5322642694257
 21
796.47584862620113
 31
0.0
  0
LINE
  5
2E0
100
AcDbEntity
  8
0
  6
DASHDOT
 62
               7
100
AcDbLine
 10
1018.5532092111836
 20
844.01534277170992
 30
0.0
 11
1012.3022366002059
 21
897.14890411872352
 31
0.0
  0
LINE
  5
2E1
100
AcDbEntity
  8
0
  6
Continuous
 62
               7
100
AcDbLine
 10
1015.8658641951109
 20
849.7405656289086
 30
0.0
 11
1010.6080367653166
 21
894.43234620116277
 31
0.0
  0
LINE
  5
2E2
100
AcDbEntity
  8
0
  6
Continuous
 62
               7
100
AcDbLine
 10
1019.8384669126445
 20
850.20792806711245
 30
0.0
 11
1014.5806394828504
 21
894.89970863936674
 31
0.0
  0
LINE
  5
2E3
100
AcDbEntity
  8
0
  6
Continuous
 62
               7
100
AcDbLine
 10
1008.8846295271395
 20
896.24338664560332
 30
0.0
 11
1015.8366842828235
 21
897.06127091246026
 31
0.0
  0
LINE
  5
2E4
100
AcDbEntity
  8
0
  6
Continuous
 62
               7
100
AcDbLine
 10
1010.6080367653166
 20
894.43234620116277
 30
0.0
 11
1014.5806394828504
 21
894.89970863936674
 31
0.0
  0
LINE
  5
2E5
100
AcDbEntity
  8
0
  6
Continuous
 62
               7
100
AcDbLine
 10
1010.6080367653166
 20
894.43234620116277
 30
0.0
 11
1008.8846295271395
 21
896.24338664560332
 31
0.0
  0
LINE
  5
2E6
100
AcDbEntity
  8
0
  6
Continuous
 62
               7
100
AcDbLine
 10
1015.8366842828235
 20
897.06127091246026
 30
0.0
 11
1014.5806394828504
 21
894.89970863936674
 31
0.0
  0
LINE
  5
2E7
100
AcDbEntity
  8
0
  6
Continuous
 62
               7
100
AcDbLine
 10
1018.2026873825306
 20
846.99479480986031
 30
0.0
 11
1015.8658641951109
 21
849.7405656289086
 31
0.0
  0
LINE
  5
2E8
100
AcDbEntity
  8
0
  6
Continuous
 62
               7
100
AcDbLine
 10
1018.2026873825306
 20
846.99479480986031
 30
0.0
 11
1019.8384669126445
 21
850.20792806711245
 31
0.0
  0
LINE
  5
2E9
100
AcDbEntity
  8
0
  6
Continuous
 62
               7
100
AcDbLine
 10
1012.4774865181324
 20
878.54193533102784
 30
0.0
 11
1016.2164080165643
 21
880.99559912799873
 31
0.0
  0
LINE
  5
2EA
100
AcDbEntity
  8
0
  6
Continuous
 62
               7
100
AcDbLine
 10
1015.7490455783603
 20
884.96820184553235
 30
0.0
 11
1012.0101240799285
 21
882.51453804856146
 31
0.0
  0
LINE
  5
2EB
100
AcDbEntity
  8
0
  6
Continuous
 62
               7
100
AcDbLine
 10
1015.9827267974623
 20
882.98190048676543
 30
0.0
 11
1012.2438052990304
 21
880.52823668979477
 31
0.0
  0
LINE
  5
2EC
100
AcDbEntity
  8
0
  6
Continuous
 62
               7
100
AcDbLine
 10
1011.7764428608265
 20
884.50083940732839
 30
0.0
 11
1015.5153643592583
 21
886.95450320429927
 31
0.0
  0
LINE
  5
2ED
100
AcDbEntity
  8
0
  6
Continuous
 62
               7
100
AcDbLine
 10
1012.9448489563364
 20
874.56933261349423
 30
0.0
 11
1016.6837704547683
 21
877.02299641046488
 31
0.0
  0
LINE
  5
2EE
100
AcDbEntity
  8
0
  6
Continuous
 62
               7
100
AcDbLine
 10
1016.4500892356663
 20
879.00929776923181
 30
0.0
 11
1012.7111677372344
 21
876.55563397226115
 31
0.0
  0
LINE
  5
2EF
100
AcDbEntity
  8
0
  6
Continuous
 62
               7
100
AcDbLine
 10
1013.4122113945403
 20
870.59672989596038
 30
0.0
 11
1017.1511328929722
 21
873.05039369293127
 31
0.0
  0
LINE
  5
2F0
100
AcDbEntity
  8
0
  6
Continuous
 62
               7
100
AcDbLine
 10
1016.9174516738702
 20
875.03669505169819
 30
0.0
 11
1013.1785301754384
 21
872.5830312547273
 31
0.0
  0
LINE
  5
2F1
100
AcDbEntity
  8
0
  6
Continuous
 62
               7
100
AcDbLine
 10
1013.8795738327443
 20
866.62412717842665
 30
0.0
 11
1017.618495331176
 21
869.07779097539765
 31
0.0
  0
LINE
  5
2F2
100
AcDbEntity
  8
0
  6
Continuous
 62
               7
100
AcDbLine
 10
1017.384814112074
 20
871.06409233416434
 30
0.0
 11
1013.6458926136423
 21
868.61042853719357
 31
0.0
  0
LINE
  5
2F3
100
AcDbEntity
  8
0
  6
Continuous
 62
               7
100
AcDbLine
 10
1014.3469362709483
 20
862.65152446089303
 30
0.0
 11
1018.0858577693799
 21
865.1051882578638
 31
0.0
  0
LINE
  5
2F4
100
AcDbEntity
  8
0
  6
Continuous
 62
               7
100
AcDbLine
 10
1017.8521765502779
 20
867.09148961663072
 30
0.0
 11
1014.1132550518463
 21
864.63782581965995
 31
0.0
  0
LINE
  5
2F5
100
AcDbEntity
  8
0
  6
Continuous
 62
               7
100
AcDbLine
 10
1014.8142987091522
 20
858.6789217433593
 30
0.0
 11
1018.5532202075839
 21
861.13258554033018
 31
0.0
  0
LINE
  5
2F6
100
AcDbEntity
  8
0
  6
Continuous
 62
               7
100
AcDbLine
 10
1018.3195389884819
 20
863.11888689909699
 30
0.0
 11
1014.5806174900503
 21
860.66522310212622
 31
0.0
  0
LINE
  5
2F7
100
AcDbEntity
  8
0
  6
Continuous
 62
               7
100
AcDbLine
 10
1015.2816611473562
 20
854.70631902582568
 30
0.0
 11
1019.0205826457876
 21
857.15998282279645
 31
0.0
  0
LINE
  5
2F8
100
AcDbEntity
  8
0
  6
Continuous
 62
               7
100
AcDbLine
 10
1018.7869014266856
 20
859.14628418156326
 30
0.0
 11
1015.0479799282542
 21
856.6926203845926
 31
0.0
  0
LINE
  5
2F9
100
AcDbEntity
  8
0
  6
Continuous
 62
               7
100
AcDbLine
 10
1015.7490235855602
 20
850.73371630829206
 30
0.0
 11
1019.4879450839916
 21
853.18738010526272
 31
0.0
  0
LINE
  5
2FA
100
AcDbEntity
  8
0
  6
Continuous
 62
               7
100
AcDbLine
 10
1019.2542638648896
 20
855.17368146402964
 30
0.0
 11
1015.515342366458
 21
852.72001766705876
 31
0.0
  0
LINE
  5
2FB
100
AcDbEntity
  8
0
  6
Continuous
 62
               7
100
AcDbLine
 10
1017.6184815856758
 20
847.68123751462224
 30
0.0
 11
1019.0205771475875
 21
848.60136143848626
 31
0.0
  0
LINE
  5
2FC
100
AcDbEntity
  8
0
  6
Continuous
 62
               7
100
AcDbLine
 10
1019.7216263030936
 20
851.20107874649591
 30
0.0
 11
1016.4500699919657
 21
849.05412292414644
 31
0.0
  0
CIRCLE
  5
2FD
100
AcDbEntity
  8
0
  6
Continuous
 62
               2
100
AcDbCircle
 10
971.55686713020611
 20
561.08639040986327
 30
0.0
 40
10.0
  0
CIRCLE
  5
2FE
100
AcDbEntity
  8
0
  6
Continuous
 62
               2
100
AcDbCircle
 10
1095.5568671302062
 20
827.39868427903218
 30
0.0
 40
10.0
  0
CIRCLE
  5
2FF
100
AcDbEntity
  8
0
  6
Continuous
 62
               4
100
AcDbCircle
 10
918.74491012531382
 20
1009.9905101379222
 30
0.0
 40
1.0
  0
CIRCLE
  5
300
100
AcDbEntity
  8
0
  6
Continuous
 62
               4
100
AcDbCircle
 10
1001.9550625130613
 20
1019.779885635154
 30
0.0
 40
1.0
  0
CIRCLE
  5
301
100
AcDbEntity
  8
0
  6
Continuous
 62
               4
100
AcDbCircle
 10
1001.9550625130613
 20
1019.779885635154
 30
0.0
 40
1.0
  0
CIRCLE
  5
302
100
AcDbEntity
  8
0
  6
Continuous
 62
               4
100
AcDbCircle
 10
1071.9550625130614
 20
1028.0151341612357
 30
0.0
 40
1.0
  0
CIRCLE
  5
303
100
AcDbEntity
  8
0
  6
Continuous
 62
               4
100
AcDbCircle
 10
917.10914159159995
 20
1023.8946196492902
 30
0.0
 40
1.0
  0
CIRCLE
  5
304
100
AcDbEntity
  8
0
  6
Continuous
 62
               4
100
AcDbCircle
 10
1070.3192939793475
 20
1041.9192436726034
 30
0.0
 40
1.0
  0
CIRCLE
  5
305
100
AcDbEntity
  8
0
  6
Continuous
 62
               4
100
AcDbCircle
 10
1381.5568671302067
 20
561.08639040986327
 30
0.0
 40
1.0
  0
CIRCLE
  5
306
100
AcDbEntity
  8
0
  6
Continuous
 62
               4
100
AcDbCircle
 10
1381.5568671302067
 20
827.39868427903207
 30
0.0
 40
1.0
  0
CIRCLE
  5
307
100
AcDbEntity
  8
0
  6
Continuous
 62
               4
100
AcDbCircle
 10
1381.5568671302067
 20
827.39868427903207
 30
0.0
 40
1.0
  0
CIRCLE
  5
308
100
AcDbEntity
  8
0
  6
Continuous
 62
               4
100
AcDbCircle
 10
1381.5568671302067
 20
883.62583252225545
 30
0.0
 40
1.0
  0
CIRCLE
  5
309
100
AcDbEntity
  8
0
  6
Continuous
 62
               4
100
AcDbCircle
 10
971.55686713020611
 20
304.26294306291635
 30
0.0
 40
1.0
  0
CIRCLE
  5
30A
100
AcDbEntity
  8
0
  6
Continuous
 62
               4
100
AcDbCircle
 10
1045.5568671302062
 20
304.26294306291635
 30
0.0
 40
1.0
  0
CIRCLE
  5
30B
100
AcDbEntity
  8
0
  6
Continuous
 62
               4
100
AcDbCircle
 10
1045.5568671302062
 20
304.26294306291635
 30
0.0
 40
1.0
  0
CIRCLE
  5
30C
100
AcDbEntity
  8
0
  6
Continuous
 62
               4
100
AcDbCircle
 10
1145.5568671302062
 20
304.26294306291635
 30
0.0
 40
1.0
  0
CIRCLE
  5
30D
100
AcDbEntity
  8
0
  6
Continuous
 62
               4
100
AcDbCircle
 10
971.55686713020611
 20
276.26294306291635
 30
0.0
 40
1.0
  0
CIRCLE
  5
30E
100
AcDbEntity
  8
0
  6
Continuous
 62
               4
100
AcDbCircle
 10
1095.5568671302062
 20
276.26294306291635
 30
0.0
 40
1.0
  0
CIRCLE
  5
30F
100
AcDbEntity
  8
0
  6
Continuous
 62
               4
100
AcDbCircle
 10
1045.5568671302062
 20
416.26294306291641
 30
0.0
 40
1.0
  0
CIRCLE
  5
310
100
AcDbEntity
  8
0
  6
Continuous
 62
               4
100
AcDbCircle
 10
1095.5568671302062
 20
416.26294306291641
 30
0.0
 40
1.0
  0
CIRCLE
  5
311
100
AcDbEntity
  8
0
  6
Continuous
 62
               4
100
AcDbCircle
 10
1095.5568671302062
 20
416.26294306291641
 30
0.0
 40
1.0
  0
CIRCLE
  5
312
100
AcDbEntity
  8
0
  6
Continuous
 62
               4
100
AcDbCircle
 10
1145.5568671302062
 20
416.26294306291641
 30
0.0
 40
1.0
  0
CIRCLE
  5
313
100
AcDbEntity
  8
0
  6
Continuous
 62
               4
100
AcDbCircle
 10
1145.5568671302062
 20
416.26294306291641
 30
0.0
 40
1.0
  0
CIRCLE
  5
314
100
AcDbEntity
  8
0
  6
Continuous
 62
               4
100
AcDbCircle
 10
1174.5568671302067
 20
416.26294306291641
 30
0.0
 40
1.0
  0
CIRCLE
  5
315
100
AcDbEntity
  8
0
  6
Continuous
 62
               4
100
AcDbCircle
 10
1145.5568671302062
 20
444.26294306291641
 30
0.0
 40
1.0
  0
CIRCLE
  5
316
100
AcDbEntity
  8
0
  6
Continuous
 62
               4
100
AcDbCircle
 10
1165.5568671302067
 20
444.26294306291641
 30
0.0
 40
1.0
  0
CIRCLE
  5
317
100
AcDbEntity
  8
0
  6
Continuous
 62
               4
100
AcDbCircle
 10
1165.5568671302067
 20
444.26294306291641
 30
0.0
 40
1.0
  0
CIRCLE
  5
318
100
AcDbEntity
  8
0
  6
Continuous
 62
               4
100
AcDbCircle
 10
1171.5568671302067
 20
444.26294306291641
 30
0.0
 40
1.0
  0
CIRCLE
  5
319
100
AcDbEntity
  8
0
  6
Continuous
 62
               4
100
AcDbCircle
 10
1186.3578732518627
 20
985.08804041680537
 30
0.0
 40
1.0
  0
CIRCLE
  5
31A
100
AcDbEntity
  8
0
  6
Continuous
 62
               4
100
AcDbCircle
 10
1014.4054171471292
 20
964.85845169262529
 30
0.0
 40
1.0
  0
CIRCLE
  5
31B
100
AcDbEntity
  8
0
  6
Continuous
 62
               4
100
AcDbCircle
 10
1014.4054171471292
 20
964.85845169262529
 30
0.0
 40
1.0
  0
CIRCLE
  5
31C
100
AcDbEntity
  8
0
  6
Continuous
 62
               4
100
AcDbCircle
 10
790.94651428585928
 20
938.56931454365258
 30
0.0
 40
1.0
  0
CIRCLE
  5
31D
100
AcDbEntity
  8
0
  6
Continuous
 62
               4
100
AcDbCircle
 10
790.94651428585928
 20
938.56931454365258
 30
0.0
 40
1.0
  0
CIRCLE
  5
31E
100
AcDbEntity
  8
0
  6
Continuous
 62
               4
100
AcDbCircle
 10
567.48761142458932
 20
912.28017739468009
 30
0.0
 40
1.0
  0
CIRCLE
  5
31F
100
AcDbEntity
  8
0
  6
Continuous
 62
               4
100
AcDbCircle
 10
1241.5568671302067
 20
912.86394960873145
 30
0.0
 40
1.0
  0
CIRCLE
  5
320
100
AcDbEntity
  8
0
  6
Continuous
 62
               4
100
AcDbCircle
 10
1241.5568671302067
 20
762.86394960873133
 30
0.0
 40
1.0
  0
CIRCLE
  5
321
100
AcDbEntity
  8
0
  6
Continuous
 62
               4
100
AcDbCircle
 10
1241.5568671302067
 20
762.86394960873133
 30
0.0
 40
1.0
  0
CIRCLE
  5
322
100
AcDbEntity
  8
0
  6
Continuous
 62
               4
100
AcDbCircle
 10
1241.5568671302067
 20
537.86394960873145
 30
0.0
 40
1.0
  0
CIRCLE
  5
323
100
AcDbEntity
  8
0
  6
Continuous
 62
               4
100
AcDbCircle
 10
1174.5568671302067
 20
416.26294306291641
 30
0.0
 40
1.0
  0
CIRCLE
  5
324
100
AcDbEntity
  8
0
  6
Continuous
 62
               4
100
AcDbCircle
 10
1194.5568671302067
 20
416.26294306291641
 30
0.0
 40
1.0
  0
CIRCLE
  5
325
100
AcDbEntity
  8
0
  6
Continuous
 62
               4
100
AcDbCircle
 10
1507.5568671302067
 20
561.08639040986327
 30
0.0
 40
14.0
  0
CIRCLE
  5
326
100
AcDbEntity
  8
0
  6
Continuous
 62
               4
100
AcDbCircle
 10
1507.0774146870458
 20
624.08845898063328
 30
0.0
 40
14.0
  0
CIRCLE
  5
327
100
AcDbEntity
  8
0
  6
Continuous
 62
               4
100
AcDbCircle
 10
971.55686713020611
 20
1100.3001989562949
 30
0.0
 40
14.0
  0
CIRCLE
  5
328
100
AcDbEntity
  8
0
  6
Continuous
 62
               4
100
AcDbCircle
 10
678.70754730376734
 20
526.63371998893922
 30
0.0
 40
1.0
  0
CIRCLE
  5
329
100
AcDbEntity
  8
0
  6
Continuous
 62
               4
100
AcDbCircle
 10
649.49739491601997
 20
774.92138983479481
 30
0.0
 40
1.0
  0
CIRCLE
  5
32A
100
AcDbEntity
  8
0
  6
Continuous
 62
               4
100
AcDbCircle
 10
720.41987583787102
 20
531.54102559008084
 30
0.0
 40
1.0
  0
CIRCLE
  5
32B
100
AcDbEntity
  8
0
  6
Continuous
 62
               4
100
AcDbCircle
 10
697.05175392767319
 20
730.1711614667654
 30
0.0
 40
1.0
  0
CIRCLE
  5
32C
100
AcDbEntity
  8
0
  6
Continuous
 62
               4
100
AcDbCircle
 10
697.05175392767319
 20
730.1711614667654
 30
0.0
 40
1.0
  0
CIRCLE
  5
32D
100
AcDbEntity
  8
0
  6
Continuous
 62
               4
100
AcDbCircle
 10
685.36769297257433
 20
829.48622940510757
 30
0.0
 40
1.0
  0
CIRCLE
  5
32E
100
AcDbEntity
  8
0
  6
Continuous
 62
               4
100
AcDbCircle
 10
685.36769297257433
 20
829.48622940510757
 30
0.0
 40
1.0
  0
CIRCLE
  5
32F
100
AcDbEntity
  8
0
  6
Continuous
 62
               4
100
AcDbCircle
 10
681.9793152955956
 20
858.28759910722681
 30
0.0
 40
1.0
  0
CIRCLE
  5
330
100
AcDbEntity
  8
0
  6
Continuous
 62
               4
100
AcDbCircle
 10
681.9793152955956
 20
858.28759910722681
 30
0.0
 40
1.0
  0
CIRCLE
  5
331
100
AcDbEntity
  8
0
  6
Continuous
 62
               4
100
AcDbCircle
 10
679.64250310457578
 20
878.15061269489524
 30
0.0
 40
1.0
  0
CIRCLE
  5
332
100
AcDbEntity
  8
0
  6
Continuous
 62
               4
100
AcDbCircle
 10
710.95586343904108
 20
731.80693000047916
 30
0.0
 40
1.0
  0
CIRCLE
  5
333
100
AcDbEntity
  8
0
  6
Continuous
 62
               4
100
AcDbCircle
 10
705.11383296149177
 20
781.4644639696503
 30
0.0
 40
1.0
  0
CIRCLE
  5
334
100
AcDbEntity
  8
0
  6
Continuous
 62
               4
100
AcDbCircle
 10
705.11383296149177
 20
781.4644639696503
 30
0.0
 40
1.0
  0
CIRCLE
  5
335
100
AcDbEntity
  8
0
  6
Continuous
 62
               4
100
AcDbCircle
 10
699.27180248394211
 20
831.12199793882144
 30
0.0
 40
1.0
  0
CIRCLE
  5
336
100
AcDbEntity
  8
0
  6
Continuous
 62
               4
100
AcDbCircle
 10
699.27180248394211
 20
831.12199793882144
 30
0.0
 40
1.0
  0
CIRCLE
  5
337
100
AcDbEntity
  8
0
  6
Continuous
 62
               4
100
AcDbCircle
 10
696.93499029292241
 20
850.98501152648987
 30
0.0
 40
1.0
  0
CIRCLE
  5
338
100
AcDbEntity
  8
0
  6
Continuous
 62
               4
100
AcDbCircle
 10
696.93499029292241
 20
850.98501152648987
 30
0.0
 40
1.0
  0
CIRCLE
  5
339
100
AcDbEntity
  8
0
  6
Continuous
 62
               4
100
AcDbCircle
 10
696.23394663561646
 20
856.9439156027903
 30
0.0
 40
1.0
  0
CIRCLE
  5
33A
100
AcDbEntity
  8
0
  6
Continuous
 62
               4
100
AcDbCircle
 10
635.556867130206
 20
833.69513026286529
 30
0.0
 40
1.0
  0
CIRCLE
  5
33B
100
AcDbEntity
  8
0
  6
Continuous
 62
               4
100
AcDbCircle
 10
635.556867130206
 20
846.78478550840236
 30
0.0
 40
1.0
  0
CIRCLE
  5
33C
100
AcDbEntity
  8
0
  6
Continuous
 62
               4
100
AcDbCircle
 10
635.556867130206
 20
850.81237173779846
 30
0.0
 40
1.0
  0
CIRCLE
  5
33D
100
AcDbEntity
  8
0
  6
Continuous
 62
               4
100
AcDbCircle
 10
635.556867130206
 20
852.8261648524965
 30
0.0
 40
1.0
  0
CIRCLE
  5
33E
100
AcDbEntity
  8
0
  6
Continuous
 62
               4
100
AcDbCircle
 10
1171.4021679299503
 20
941.03887704233171
 30
0.0
 40
1.0
  0
CIRCLE
  5
33F
100
AcDbEntity
  8
0
  6
Continuous
 62
               4
100
AcDbCircle
 10
1191.2651815176187
 20
943.37568923335152
 30
0.0
 40
1.0
  0
CIRCLE
  5
340
100
AcDbEntity
  8
0
  6
Continuous
 62
               4
100
AcDbCircle
 10
1025.5568671302062
 20
750.8186078855
 30
0.0
 40
1.0
  0
CIRCLE
  5
341
100
AcDbEntity
  8
0
  6
Continuous
 62
               4
100
AcDbCircle
 10
1045.5568671302062
 20
750.8186078855
 30
0.0
 40
1.0
  0
ARC
  5
342
100
AcDbEntity
  8
0
  6
Continuous
 62
               6
100
AcDbCircle
 10
957.05686713020611
 20
507.08639040986327
 30
0.0
 40
11.0
100
AcDbArc
 50
270.0
 51
0.0
  0
ARC
  5
343
100
AcDbEntity
  8
0
  6
Continuous
 62
               6
100
AcDbCircle
 10
957.05686713020611
 20
615.08639040986327
 30
0.0
 40
11.0
100
AcDbArc
 50
0.0
 51
90.000000000000028
  0
ARC
  5
344
100
AcDbEntity
  8
0
  6
Continuous
 62
               6
100
AcDbCircle
 10
986.05686713020611
 20
615.08639040986327
 30
0.0
 40
11.0
100
AcDbArc
 50
90.000000000000028
 51
180.0
  0
ARC
  5
345
100
AcDbEntity
  8
0
  6
Continuous
 62
               6
100
AcDbCircle
 10
986.05686713020611
 20
507.08639040986327
 30
0.0
 40
11.0
100
AcDbArc
 50
180.0
 51
270.0
  0
ARC
  5
346
100
AcDbEntity
  8
0
  6
Continuous
 62
               7
100
AcDbCircle
 10
1120.5568671302062
 20
401.08639040986327
 30
0.0
 40
10.0
100
AcDbArc
 50
323.13010235415601
 51
36.869897645844013
  0
ARC
  5
347
100
AcDbEntity
  8
0
  6
Continuous
 62
               7
100
AcDbCircle
 10
1127.3068671302062
 20
392.08639040986327
 30
0.0
 40
3.25
100
AcDbArc
 50
0.0
 51
67.380135051959741
  0
ARC
  5
348
100
AcDbEntity
  8
0
  6
Continuous
 62
               7
100
AcDbCircle
 10
1127.3068671302062
 20
410.08639040986327
 30
0.0
 40
3.25
100
AcDbArc
 50
292.61986494804017
 51
0.0
  0
ARC
  5
349
100
AcDbEntity
  8
0
  6
Continuous
 62
               7
100
AcDbCircle
 10
1037.5568671302058
 20
401.08639040986327
 30
0.0
 40
10.0
100
AcDbArc
 50
143.13010235415592
 51
216.86989764584399
  0
ARC
  5
34A
100
AcDbEntity
  8
0
  6
Continuous
 62
               7
100
AcDbCircle
 10
1030.8068671302058
 20
392.08639040986327
 30
0.0
 40
3.25
100
AcDbArc
 50
112.61986494804019
 51
180.0
  0
ARC
  5
34B
100
AcDbEntity
  8
0
  6
Continuous
 62
               7
100
AcDbCircle
 10
1030.8068671302058
 20
410.08639040986327
 30
0.0
 40
3.25
100
AcDbArc
 50
180.0
 51
247.38013505195971
  0
ARC
  5
34C
100
AcDbEntity
  8
0
  6
Continuous
 62
               7
100
AcDbCircle
 10
781.1483024237217
 20
815.58206008295087
 30
0.0
 40
10.0
100
AcDbArc
 50
59.839902354155882
 51
133.57969764584399
  0
ARC
  5
34D
100
AcDbEntity
  8
0
  6
Continuous
 62
               7
100
AcDbCircle
 10
789.29798442370372
 20
823.33739265474753
 30
0.0
 40
3.25
100
AcDbArc
 50
96.709799999999888
 51
164.08993505195974
  0
ARC
  5
34E
100
AcDbEntity
  8
0
  6
Continuous
 62
               7
100
AcDbCircle
 10
771.42127219480187
 20
821.23426168283027
 30
0.0
 40
3.25
100
AcDbArc
 50
29.329664948040136
 51
96.709799999999888
  0
ARC
  5
34F
100
AcDbEntity
  8
0
  6
Continuous
 62
               7
100
AcDbCircle
 10
790.8460730164519
 20
733.15055369412642
 30
0.0
 40
10.0
100
AcDbArc
 50
239.8399023541559
 51
313.57969764584391
  0
ARC
  5
350
100
AcDbEntity
  8
0
  6
Continuous
 62
               7
100
AcDbCircle
 10
800.57310324537173
 20
727.49835209424702
 30
0.0
 40
3.25
100
AcDbArc
 50
209.32966494804006
 51
276.70979999999992
  0
ARC
  5
351
100
AcDbEntity
  8
0
  6
Continuous
 62
               7
100
AcDbCircle
 10
782.69639101646987
 20
725.39522112232964
 30
0.0
 40
3.25
100
AcDbArc
 50
276.70979999999992
 51
344.08993505195963
  0
ARC
  5
352
100
AcDbEntity
  8
0
  6
Continuous
 62
               2
100
AcDbCircle
 10
1185.4568671302068
 20
760.1639496087314
 30
0.0
 40
0.900000000000006
100
AcDbArc
 50
90.000000000000028
 51
270.0
  0
ARC
  5
353
100
AcDbEntity
  8
0
  6
Continuous
 62
               2
100
AcDbCircle
 10
1192.1568671302066
 20
761.6639496087314
 30
0.0
 40
2.4000000000000061
100
AcDbArc
 50
270.0
 51
90.0
  0
ARC
  5
354
100
AcDbEntity
  8
0
  6
Continuous
 62
               2
100
AcDbCircle
 10
1192.7568671302065
 20
761.06394960873138
 30
0.0
 40
0.599999999999994
100
AcDbArc
 50
270.0
 51
90.0
  0
ARC
  5
355
100
AcDbEntity
  8
0
  6
Continuous
 62
               4
100
AcDbCircle
 10
1192.4568671302068
 20
761.36394960873133
 30
0.0
 40
1.500000000000014
100
AcDbArc
 50
270.0
 51
90.0
  0
ARC
  5
356
100
AcDbEntity
  8
0
  6
Continuous
 62
               2
100
AcDbCircle
 10
1185.4568671302068
 20
535.1639496087314
 30
0.0
 40
0.900000000000006
100
AcDbArc
 50
90.000000000000028
 51
270.0
  0
ARC
  5
357
100
AcDbEntity
  8
0
  6
Continuous
 62
               2
100
AcDbCircle
 10
1192.1568671302066
 20
536.6639496087314
 30
0.0
 40
2.4000000000000061
100
AcDbArc
 50
270.0
 51
90.0
  0
ARC
  5
358
100
AcDbEntity
  8
0
  6
Continuous
 62
               2
100
AcDbCircle
 10
1192.7568671302065
 20
536.06394960873138
 30
0.0
 40
0.599999999999994
100
AcDbArc
 50
270.0
 51
90.0
  0
ARC
  5
359
100
AcDbEntity
  8
0
  6
Continuous
 62
               4
100
AcDbCircle
 10
1192.4568671302068
 20
536.36394960873145
 30
0.0
 40
1.500000000000014
100
AcDbArc
 50
270.0
 51
90.0
  0
ARC
  5
35A
100
AcDbEntity
  8
0
  6
Continuous
 62
               2
100
AcDbCircle
 10
1021.3691294812023
 20
915.93697090284286
 30
0.0
 40
2.399999999999916
100
AcDbArc
 50
6.7097999999999134
 51
186.7098000000002
  0
ARC
  5
35B
100
AcDbEntity
  8
0
  6
Continuous
 62
               2
100
AcDbCircle
 10
1021.894915523102
 20
916.60296567620344
 30
0.0
 40
0.599999999999965
100
AcDbArc
 50
6.7097999999992251
 51
186.70979999999992
  0
ARC
  5
35C
100
AcDbEntity
  8
0
  6
Continuous
 62
               4
100
AcDbCircle
 10
1021.6320225021522
 20
916.26996828952315
 30
0.0
 40
1.499999999999996
100
AcDbArc
 50
6.7097999999999702
 51
186.70980000000043
  0
ARC
  5
35D
100
AcDbEntity
  8
0
  6
Continuous
 62
               2
100
AcDbCircle
 10
1023.6416875842691
 20
909.45812226530029
 30
0.0
 40
0.899999999999982
100
AcDbArc
 50
186.70979999999949
 51
6.7098000000002678
  0
ARC
  5
35E
100
AcDbEntity
  8
0
  6
Continuous
 62
               2
100
AcDbCircle
 10
797.91022661993236
 20
889.64783375387015
 30
0.0
 40
2.399999999999916
100
AcDbArc
 50
6.7097999999999134
 51
186.7098000000002
  0
ARC
  5
35F
100
AcDbEntity
  8
0
  6
Continuous
 62
               2
100
AcDbCircle
 10
798.43601266183157
 20
890.31382852723073
 30
0.0
 40
0.599999999999965
100
AcDbArc
 50
6.7097999999992251
 51
186.70979999999992
  0
ARC
  5
360
100
AcDbEntity
  8
0
  6
Continuous
 62
               4
100
AcDbCircle
 10
798.17311964088196
 20
889.98083114055044
 30
0.0
 40
1.499999999999996
100
AcDbArc
 50
6.7097999999999702
 51
186.70980000000043
  0
ARC
  5
361
100
AcDbEntity
  8
0
  6
Continuous
 62
               2
100
AcDbCircle
 10
800.18278472299914
 20
883.1689851163278
 30
0.0
 40
0.899999999999982
100
AcDbArc
 50
186.70979999999949
 51
6.7098000000002171
  0
ARC
  5
362
100
AcDbEntity
  8
0
  6
Continuous
 62
               2
100
AcDbCircle
 10
574.45132375866217
 20
863.35869660489743
 30
0.0
 40
2.399999999999916
100
AcDbArc
 50
6.7097999999999702
 51
186.7098000000002
  0
ARC
  5
363
100
AcDbEntity
  8
0
  6
Continuous
 62
               2
100
AcDbCircle
 10
574.97710980056161
 20
864.02469137825813
 30
0.0
 40
0.599999999999965
100
AcDbArc
 50
6.7097999999992828
 51
186.70979999999992
  0
ARC
  5
364
100
AcDbEntity
  8
0
  6
Continuous
 62
               4
100
AcDbCircle
 10
574.71421677961189
 20
863.69169399157784
 30
0.0
 40
1.499999999999996
100
AcDbArc
 50
6.7097999999999702
 51
186.70980000000043
  0
ARC
  5
365
100
AcDbEntity
  8
0
  6
Continuous
 62
               2
100
AcDbCircle
 10
576.72388186172896
 20
856.87984796735509
 30
0.0
 40
0.899999999999982
100
AcDbArc
 50
186.70979999999949
 51
6.7098000000002678
  0
ARC
  5
366
100
AcDbEntity
  8
0
  6
Continuous
 62
               2
100
AcDbCircle
 10
796.47306842857495
 20
872.76427440363182
 30
0.0
 40
1.0
100
AcDbArc
 50
276.70980000000003
 51
6.7098000000001656
  0
ARC
  5
367
100
AcDbEntity
  8
0
  6
Continuous
 62
               2
100
AcDbCircle
 10
800.84293141786213
 20
873.27837308565631
 30
0.0
 40
1.0
100
AcDbArc
 50
186.70980000000054
 51
276.70980000000003
  0
ARC
  5
368
100
AcDbEntity
  8
0
  6
Continuous
 62
               2
100
AcDbCircle
 10
573.01416556730487
 20
846.4751372546591
 30
0.0
 40
1.0
100
AcDbArc
 50
276.70980000000003
 51
6.7098000000001656
  0
ARC
  5
369
100
AcDbEntity
  8
0
  6
Continuous
 62
               2
100
AcDbCircle
 10
577.38402855659194
 20
846.98923593668349
 30
0.0
 40
1.0
100
AcDbArc
 50
186.70980000000054
 51
276.70980000000003
  0
ARC
  5
36A
100
AcDbEntity
  8
0
  6
Continuous
 62
               2
100
AcDbCircle
 10
1019.9319712898449
 20
899.05341155260453
 30
0.0
 40
1.0
100
AcDbArc
 50
276.70980000000003
 51
6.7098000000001656
  0
ARC
  5
36B
100
AcDbEntity
  8
0
  6
Continuous
 62
               2
100
AcDbCircle
 10
1024.3018342791324
 20
899.5675102346288
 30
0.0
 40
1.0
100
AcDbArc
 50
186.70980000000054
 51
276.70980000000003
  0
ARC
  5
36C
100
AcDbEntity
  8
0
  6
Continuous
 62
               2
100
AcDbCircle
 10
1175.5568671302067
 20
760.6639496087314
 30
0.0
 40
1.0
100
AcDbArc
 50
90.000000000000028
 51
180.0
  0
ARC
  5
36D
100
AcDbEntity
  8
0
  6
Continuous
 62
               2
100
AcDbCircle
 10
1175.5568671302067
 20
765.06394960873138
 30
0.0
 40
1.0
100
AcDbArc
 50
180.0
 51
270.0
  0
ARC
  5
36E
100
AcDbEntity
  8
0
  6
Continuous
 62
               2
100
AcDbCircle
 10
1175.5568671302067
 20
535.6639496087314
 30
0.0
 40
1.0
100
AcDbArc
 50
90.000000000000028
 51
180.0
  0
ARC
  5
36F
100
AcDbEntity
  8
0
  6
Continuous
 62
               2
100
AcDbCircle
 10
1175.5568671302067
 20
540.06394960873138
 30
0.0
 40
1.0
100
AcDbArc
 50
180.0
 51
270.0
  0
ARC
  5
370
100
AcDbEntity
  8
0
  6
Continuous
 62
               4
100
AcDbCircle
 10
971.55686713020566
 20
561.08639040986327
 30
0.0
 40
209.99999999999989
100
AcDbArc
 50
180.0
 51
186.7098
  0
ARC
  5
371
100
AcDbEntity
  8
0
  6
Continuous
 62
               4
100
AcDbCircle
 10
971.55686713020611
 20
561.08639040986327
 30
0.0
 40
210.00000000000011
100
AcDbArc
 50
186.7098
 51
270.0
  0
ARC
  5
372
100
AcDbEntity
  8
0
  6
DASHED
 62
               6
100
AcDbCircle
 10
1171.5568671302067
 20
912.86394960873145
 30
0.0
 40
1.0
100
AcDbArc
 50
0.0
 51
96.709800000000001
  0
ARC
  5
373
100
AcDbEntity
  8
0
  6
Continuous
 62
               2
100
AcDbCircle
 10
1192.7841033870404
 20
916.77091287611847
 30
0.0
 40
1.600000000000013
100
AcDbArc
 50
276.7098000000002
 51
96.70980000000128
  0
ARC
  5
374
100
AcDbEntity
  8
0
  6
Continuous
 62
               4
100
AcDbCircle
 10
1193.0061016448276
 20
916.59565086215184
 30
0.0
 40
0.7999999999999921
100
AcDbArc
 50
276.70979999999719
 51
96.709800000003327
  0
ELLIPSE
  5
375
100
AcDbEntity
  8
0
  6
Continuous
 62
               6
100
AcDbEllipse
 10
1035.5568671302062
 20
837.00826362040118
 30
0.0
 11
-10.0
 21
0.0000000000000012
 31
0.0
210
0.0
220
0.0
230
1.0
 40
0.75
 41
0.0
 42
6.2831853071795862
  0
TEXT
  5
376
100
AcDbEntity
  8
0
 62
               7
100
AcDbText
 10
950.3016074452745
 20
1014.7099575331511
 30
0.0
 40
8.0000000000000693
  1
83.78
 50
6.7097941472177576
 41
0.7695
  7
FontTableH_0
 72
               5
 11
965.19886781505522
 21
1016.462565154656
 31
0.0
100
AcDbText
  0
TEXT
  5
377
100
AcDbEntity
  8
0
 62
               7
100
AcDbText
 10
1026.9065264452747
 20
1023.722286533151
 30
0.0
 40
7.9999999999998437
  1
70.48
 50
6.7097941472177576
 41
0.7695
  7
FontTableH_0
 72
               5
 11
1041.8037868150554
 21
1025.4748941546559
 31
0.0
100
AcDbText
  0
TEXT
  5
378
100
AcDbEntity
  8
0
 62
               7
100
AcDbText
 10
981.67953644527449
 20
1032.4980435331511
 30
0.0
 40
7.9999999999998703
  1
154.27
 50
6.7097941472186173
 41
0.7695
  7
FontTableH_0
 72
               5
 11
999.5562488890115
 21
1034.6011726789573
 31
0.0
100
AcDbText
  0
TEXT
  5
379
100
AcDbEntity
  8
0
 62
               7
100
AcDbText
 10
1380.5567344452747
 20
682.24255053315096
 30
0.0
 40
7.9999999999999716
  1
266.31
 50
89.999981276032244
 41
0.7695
  7
FontTableH_0
 72
               5
 11
1380.5567403275827
 21
700.24255053315005
 31
0.0
100
AcDbText
  0
TEXT
  5
37A
100
AcDbEntity
  8
0
 62
               7
100
AcDbText
 10
1380.5567344452747
 20
845.51226453315098
 30
0.0
 40
7.9999999999999716
  1
56.23
 50
89.999981276031093
 41
0.7695
  7
FontTableH_0
 72
               5
 11
1380.5567393471983
 21
860.51226453315007
 31
0.0
100
AcDbText
  0
TEXT
  5
37B
100
AcDbEntity
  8
0
 62
               7
100
AcDbText
 10
1004.5568564452745
 20
305.26290553315096
 30
0.0
 40
8.0
  1
74
 41
0.7695
  7
FontTableH_0
 72
               5
 11
1010.5568564452745
 21
305.26290553315096
 31
0.0
100
AcDbText
  0
TEXT
  5
37C
100
AcDbEntity
  8
0
 62
               7
100
AcDbText
 10
1089.5566734452746
 20
305.26290553315096
 30
0.0
 40
8.0
  1
100
 41
0.7695
  7
FontTableH_0
 72
               5
 11
1098.5566734452746
 21
305.26290553315096
 31
0.0
100
AcDbText
  0
TEXT
  5
37D
100
AcDbEntity
  8
0
 62
               7
100
AcDbText
 10
1027.5568564452747
 20
277.26290553315096
 30
0.0
 40
8.0
  1
124
 41
0.7695
  7
FontTableH_0
 72
               5
 11
1036.5568564452747
 21
277.26290553315096
 31
0.0
100
AcDbText
  0
TEXT
  5
37E
100
AcDbEntity
  8
0
 62
               7
100
AcDbText
 10
1066.5570394452748
 20
417.26317953315095
 30
0.0
 40
7.9999999999998863
  1
50
 41
0.7695
  7
FontTableH_0
 72
               5
 11
1072.5570394452748
 21
417.26317953315095
 31
0.0
100
AcDbText
  0
TEXT
  5
37F
100
AcDbEntity
  8
0
 62
               7
100
AcDbText
 10
1116.5570394452748
 20
417.26317953315095
 30
0.0
 40
7.9999999999998863
  1
50
 41
0.7695
  7
FontTableH_0
 72
               5
 11
1122.5570394452748
 21
417.26317953315095
 31
0.0
100
AcDbText
  0
TEXT
  5
380
100
AcDbEntity
  8
0
 62
               7
100
AcDbText
 10
1156.0568564452747
 20
417.26317953315095
 30
0.0
 40
7.9999999999998863
  1
27
 41
0.7695
  7
FontTableH_0
 72
               5
 11
1162.0568564452747
 21
417.26317953315095
 31
0.0
100
AcDbText
  0
TEXT
  5
381
100
AcDbEntity
  8
0
 62
               7
100
AcDbText
 10
1151.5573444452743
 20
445.26317953315095
 30
0.0
 40
7.9999999999998863
  1
20
 41
0.7695
  7
FontTableH_0
 72
               5
 11
1157.5573444452743
 21
445.26317953315095
 31
0.0
100
AcDbText
  0
TEXT
  5
382
100
AcDbEntity
  8
0
 62
               7
100
AcDbText
 10
1166.5574664452747
 20
445.26317953315095
 30
0.0
 40
7.9999999999998863
  1
6
 41
0.7695
  7
FontTableH_0
 72
               5
 11
1169.5574664452747
 21
445.26317953315095
 31
0.0
100
AcDbText
  0
TEXT
  5
383
100
AcDbEntity
  8
0
 62
               7
100
AcDbText
 10
1080.4021324452747
 20
973.6298795331511
 30
0.0
 40
8.0000000000000693
  1
現場合ワセ
 50
6.709794147218159
 41
0.7695
  7
FontTableH_0
 72
               5
 11
1120.1281600980237
 21
978.30349985716452
 31
0.0
100
AcDbText
  0
TEXT
  5
384
100
AcDbEntity
  8
0
 62
               7
100
AcDbText
 10
896.6003744452745
 20
952.00622153315089
 30
0.0
 40
8.0000000000000959
  1
225
 50
6.7097941472186751
 41
0.7695
  7
FontTableH_0
 72
               5
 11
905.53873066714289
 21
953.05778610605398
 31
0.0
100
AcDbText
  0
TEXT
  5
385
100
AcDbEntity
  8
0
 62
               7
100
AcDbText
 10
673.14151144527443
 20
925.7170985331511
 30
0.0
 40
8.0000000000000959
  1
225
 50
6.7097941472186751
 41
0.7695
  7
FontTableH_0
 72
               5
 11
682.07986766714282
 21
926.76866310605419
 31
0.0
100
AcDbText
  0
TEXT
  5
386
100
AcDbEntity
  8
0
 62
               7
100
AcDbText
 10
1240.5573444452748
 20
817.86419353315091
 30
0.0
 40
7.9999999999999716
  1
現場合ワセ
 50
89.999981276031718
 41
0.7695
  7
FontTableH_0
 72
               5
 11
1240.5573575170706
 21
857.86419353314886
 31
0.0
100
AcDbText
  0
TEXT
  5
387
100
AcDbEntity
  8
0
 62
               7
100
AcDbText
 10
1240.5573444452748
 20
644.36419353315091
 30
0.0
 40
7.9999999999999716
  1
225
 50
89.999981276032244
 41
0.7695
  7
FontTableH_0
 72
               5
 11
1240.5573473864288
 21
653.36419353315046
 31
0.0
100
AcDbText
  0
TEXT
  5
388
100
AcDbEntity
  8
0
 62
               7
100
AcDbText
 10
1180.5573444452748
 20
417.26317953315095
 30
0.0
 40
7.9999999999998863
  1
20
 41
0.7695
  7
FontTableH_0
 72
               5
 11
1186.5573444452748
 21
417.26317953315095
 31
0.0
100
AcDbText
  0
TEXT
  5
389
100
AcDbEntity
  8
0
 62
               7
100
AcDbText
 10
1240.5573444452748
 20
477.86419353315091
 30
0.0
 40
7.9999999999999716
  1
＠225
 50
89.999981276031434
 41
0.7695
  7
FontTableH_0
 72
               5
 11
1240.5573500620621
 21
495.05169353315
 31
0.0
100
AcDbText
  0
TEXT
  5
38A
100
AcDbEntity
  8
0
 62
               7
100
AcDbText
 10
1498.5567344452747
 20
555.08645253315092
 30
0.0
 40
12.0
  1
Y10
 41
0.7695
  7
FontTableH_0
 72
               5
 11
1512.0567344452747
 21
555.08645253315092
 31
0.0
100
AcDbText
  0
TEXT
  5
38B
100
AcDbEntity
  8
0
 62
               7
100
AcDbText
 10
1498.8400594452746
 20
617.07799953315089
 30
0.0
 40
12.000000000000018
  1
AN2
 50
6.709794147218159
 41
0.7695
  7
FontTableH_0
 72
               5
 11
1512.2475937780773
 21
618.65534639250541
 31
0.0
100
AcDbText
  0
TEXT
  5
38C
100
AcDbEntity
  8
0
 62
               7
100
AcDbText
 10
962.55667344527444
 20
1094.3001675331509
 30
0.0
 40
12.0
  1
X14
 41
0.7695
  7
FontTableH_0
 72
               5
 11
976.05667344527444
 21
1094.3001675331509
 31
0.0
100
AcDbText
  0
TEXT
  5
38D
100
AcDbEntity
  8
0
 62
               7
100
AcDbText
 10
664.39474644527445
 20
656.85351153315094
 30
0.0
 40
8.0000000000000338
  1
250
 50
276.70979527109239
 41
0.7695
  7
FontTableH_0
 72
               5
 11
665.44631119350606
 21
647.9151553319092
 31
0.0
100
AcDbText
  0
TEXT
  5
38E
100
AcDbEntity
  8
0
 62
               7
100
AcDbText
 10
709.02810844527437
 20
636.93212553315095
 30
0.0
 40
8.0000000000000338
  1
200
 50
276.70979527109239
 41
0.7695
  7
FontTableH_0
 72
               5
 11
710.07967319350598
 21
627.99376933190922
 31
0.0
100
AcDbText
  0
TEXT
  5
38F
100
AcDbEntity
  8
0
 62
               7
100
AcDbText
 10
691.50204644527446
 20
785.90472053315091
 30
0.0
 40
8.0000000000000338
  1
100
 50
276.70979527109239
 41
0.7695
  7
FontTableH_0
 72
               5
 11
692.55361119350607
 21
776.96636433190918
 31
0.0
100
AcDbText
  0
TEXT
  5
390
100
AcDbEntity
  8
0
 62
               7
100
AcDbText
 10
684.19949544527447
 20
847.97637553315099
 30
0.0
 40
8.0000000000000338
  1
27
 50
276.70979527109307
 41
0.7695
  7
FontTableH_0
 72
               5
 11
684.90053861076228
 21
842.01747139898976
 31
0.0
100
AcDbText
  0
TEXT
  5
391
100
AcDbEntity
  8
0
 62
               7
100
AcDbText
 10
681.33688544527445
 20
872.30883453315096
 30
0.0
 40
8.0000000000000338
  1
20
 50
276.70979527109307
 41
0.7695
  7
FontTableH_0
 72
               5
 11
682.03792861076226
 21
866.34993039898973
 31
0.0
100
AcDbText
  0
TEXT
  5
392
100
AcDbEntity
  8
0
 62
               7
100
AcDbText
 10
708.56082344527465
 20
760.72539953315095
 30
0.0
 40
8.0000000000000338
  1
50
 50
276.70979527109307
 41
0.7695
  7
FontTableH_0
 72
               5
 11
709.26186661076247
 21
754.76649539898972
 31
0.0
100
AcDbText
  0
TEXT
  5
393
100
AcDbEntity
  8
0
 62
               7
100
AcDbText
 10
702.71878244527454
 20
810.3829305331509
 30
0.0
 40
8.0000000000000338
  1
50
 50
276.70979527109307
 41
0.7695
  7
FontTableH_0
 72
               5
 11
703.41982561076236
 21
804.42402639898967
 31
0.0
100
AcDbText
  0
TEXT
  5
394
100
AcDbEntity
  8
0
 62
               7
100
AcDbText
 10
698.62936544527452
 20
845.14324553315089
 30
0.0
 40
8.0000000000000338
  1
20
 50
276.70979527109307
 41
0.7695
  7
FontTableH_0
 72
               5
 11
699.33040861076233
 21
839.18434139898966
 31
0.0
100
AcDbText
  0
TEXT
  5
395
100
AcDbEntity
  8
0
 62
               7
100
AcDbText
 10
697.34414844527453
 20
856.06786753315089
 30
0.0
 40
8.0000000000002327
  1
6
 50
276.70979527109114
 41
0.7695
  7
FontTableH_0
 72
               5
 11
697.69467002801832
 21
853.08841546607039
 31
0.0
100
AcDbText
  0
TEXT
  5
396
100
AcDbEntity
  8
0
 62
               7
100
AcDbText
 10
762.55453644527449
 20
562.84865953315091
 30
0.0
 40
7.999999999999984
  1
6
 50
270.06520372096026
 41
0.7695
  7
FontTableH_0
 72
               5
 11
762.55795050338349
 21
559.84866147578362
 31
0.0
100
AcDbText
  0
TEXT
  5
397
100
AcDbEntity
  8
0
 62
               7
100
AcDbText
 10
762.55911444527453
 20
558.84853753315099
 30
0.0
 40
7.9999999999999858
  1
.
 50
271.16178764506145
 41
0.7695
  7
FontTableH_0
 72
               5
 11
762.61994133568157
 21
555.84915424830672
 31
0.0
100
AcDbText
  0
TEXT
  5
398
100
AcDbEntity
  8
0
 62
               7
100
AcDbText
 10
762.64023044527437
 20
554.84927053315096
 30
0.0
 40
7.99999999999996
  1
7
 50
272.25831427338454
 41
0.7695
  7
FontTableH_0
 72
               5
 11
762.7584448900194
 21
551.85160054713629
 31
0.0
100
AcDbText
  0
TEXT
  5
399
100
AcDbEntity
  8
0
 62
               7
100
AcDbText
 10
762.79782244527439
 20
550.85226053315091
 30
0.0
 40
7.9999999999998979
  1
0
 50
273.35489819748369
 41
0.7695
  7
FontTableH_0
 72
               5
 11
762.97338414295507
 21
547.85740192374919
 31
0.0
100
AcDbText
  0
TEXT
  5
39A
100
AcDbEntity
  8
0
 62
               7
100
AcDbText
 10
763.03195344527455
 20
546.85897453315101
 30
0.0
 40
8.0000000000000977
  1
9
 50
274.45148212158529
 41
0.7695
  7
FontTableH_0
 72
               5
 11
763.26479808937222
 21
543.86802428754095
 31
0.0
100
AcDbText
  0
TEXT
  5
39B
100
AcDbEntity
  8
0
 62
               7
100
AcDbText
 10
763.34237844527445
 20
542.87093753315094
 30
0.0
 40
7.9999999999999138
  1
8
 50
275.54800874990599
 41
0.7695
  7
FontTableH_0
 72
               5
 11
763.63241776114535
 21
539.88499091687504
 31
0.0
100
AcDbText
  0
TEXT
  5
39C
100
AcDbEntity
  8
0
 62
               7
100
AcDbText
 10
763.72915844527449
 20
538.889553533151
 30
0.0
 40
7.9999999999999742
  1
ﾟ
 50
276.64464996978739
 41
0.7695
  7
FontTableH_0
 72
               5
 11
764.07629216517637
 21
535.90970484898821
 31
0.0
100
AcDbText
  0
TEXT
  5
39D
100
AcDbEntity
  8
0
 62
               7
100
AcDbText
 10
821.12826744527445
 20
415.97848153315101
 30
0.0
 40
8.0000000000000249
  1
8
 50
314.516931044817
 41
0.7695
  7
FontTableH_0
 72
               5
 11
823.23162744818308
 21
413.83935164037587
 31
0.0
100
AcDbText
  0
TEXT
  5
39E
100
AcDbEntity
  8
0
 62
               7
100
AcDbText
 10
823.93283244527436
 20
413.12621753315091
 30
0.0
 40
7.9999999999997859
  1
3
 50
315.61351496891541
 41
0.7695
  7
FontTableH_0
 72
               5
 11
826.07674553578647
 21
411.02773316095977
 31
0.0
100
AcDbText
  0
TEXT
  5
39F
100
AcDbEntity
  8
0
 62
               7
100
AcDbText
 10
826.79147544527439
 20
410.32815153315096
 30
0.0
 40
8.0000000000000568
  1
.
 50
316.71004159723753
 41
0.7695
  7
FontTableH_0
 72
               5
 11
828.97515427209339
 21
408.27107915199792
 31
0.0
100
AcDbText
  0
TEXT
  5
3A0
100
AcDbEntity
  8
0
 62
               7
100
AcDbText
 10
829.70315744527454
 20
407.58529253315101
 30
0.0
 40
8.0000000000000693
  1
2
 50
317.80662552133867
 41
0.7695
  7
FontTableH_0
 72
               5
 11
831.92580424686309
 21
405.5703877722782
 31
0.0
100
AcDbText
  0
TEXT
  5
3A1
100
AcDbEntity
  8
0
 62
               7
100
AcDbText
 10
832.66678044527441
 20
404.89867853315093
 30
0.0
 40
8.0000000000001226
  1
9
 50
318.90320944543959
 41
0.7695
  7
FontTableH_0
 72
               5
 11
834.92758108802502
 21
402.9266794323047
 31
0.0
100
AcDbText
  0
TEXT
  5
3A2
100
AcDbEntity
  8
0
 62
               7
100
AcDbText
 10
835.68124544527461
 20
402.269283533151
 30
0.0
 40
8.0000000000001688
  1
0
 50
319.99973607376148
 41
0.7695
  7
FontTableH_0
 72
               5
 11
837.97936989183165
 21
400.34091011803218
 31
0.0
100
AcDbText
  0
TEXT
  5
3A3
100
AcDbEntity
  8
0
 62
               7
100
AcDbText
 10
838.74551544527446
 20
399.69802453315094
 30
0.0
 40
7.9999999999999076
  1
2
 50
321.09631999786126
 41
0.7695
  7
FontTableH_0
 72
               5
 11
841.08012388731333
 21
397.81398540872692
 31
0.0
100
AcDbText
  0
TEXT
  5
3A4
100
AcDbEntity
  8
0
 62
               7
100
AcDbText
 10
841.85843044527462
 20
397.18590953315095
 30
0.0
 40
8.0000000000001172
  1
ﾟ
 50
322.19290392196251
 41
0.7695
  7
FontTableH_0
 72
               5
 11
844.22866773874296
 21
395.34689480437589
 31
0.0
100
AcDbText
  0
TEXT
  5
3A5
100
AcDbEntity
  8
0
 62
               7
100
AcDbText
 10
430.55734444527445
 20
1053.8649255331509
 30
0.0
 40
8.0
  1
外壁材：立ハゼ葺(W=225） フッ素ステンレス t0.4
 41
0.7695
  7
FontTableH_0
 72
               5
 11
606.68100857775437
 21
1053.8649255331509
 31
0.0
100
AcDbText
  0
TEXT
  5
3A6
100
AcDbEntity
  8
0
 62
               7
100
AcDbText
 10
430.55734444527445
 20
1039.8649255331509
 30
0.0
 40
8.0
  1
下葺材：ゴムアスファルトル－フィング t1.0
 41
0.7695
  7
FontTableH_0
 72
               5
 11
592.61973100986097
 21
1039.8649255331509
 31
0.0
100
AcDbText
  0
TEXT
  5
3A7
100
AcDbEntity
  8
0
 62
               7
100
AcDbText
 10
430.55734444527445
 20
1025.8649255331509
 30
0.0
 40
8.0
  1
フレキシブルボ－ド t6（別途工事）
 41
0.7695
  7
FontTableH_0
 72
               5
 11
561.64068061976252
 21
1025.8649255331509
 31
0.0
100
AcDbText
  0
TEXT
  5
3A8
100
AcDbEntity
  8
0
 62
               7
100
AcDbText
 10
430.55734444527445
 20
1011.8649255331509
 30
0.0
 40
7.9999999999997717
  1
ネオマフォ－ム t20（別途工事）
 41
0.7695
  7
FontTableH_0
 72
               5
 11
548.89644573176986
 21
1011.8649255331509
 31
0.0
100
AcDbText
  0
TEXT
  5
3A9
100
AcDbEntity
  8
0
 62
               7
100
AcDbText
 10
430.55734444527445
 20
997.86504753315103
 30
0.0
 40
8.0
  1
ＡＬＣ板 t100（別途工事）
 41
0.7695
  7
FontTableH_0
 72
               5
 11
527.7795643495383
 21
997.86504753315103
 31
0.0
100
AcDbText
  0
TEXT
  5
3AA
100
AcDbEntity
  8
0
 62
               7
100
AcDbText
 10
488.36166544527453
 20
885.86419353315091
 30
0.0
 40
8.0
  1
通シ吊リ子
 41
0.7695
  7
FontTableH_0
 72
               5
 11
528.36166544527453
 21
885.86419353315091
 31
0.0
100
AcDbText
  0
TEXT
  5
3AB
100
AcDbEntity
  8
0
 62
               7
100
AcDbText
 10
805.30813744527438
 20
445.08645253315092
 30
0.0
 40
8.0
  1
Ｈ－150×150×7×10（別途工事）
 41
0.7695
  7
FontTableH_0
 72
               5
 11
923.03063382369612
 21
445.08645253315092
 31
0.0
100
AcDbText
  0
TEXT
  5
3AC
100
AcDbEntity
  8
0
 62
               7
100
AcDbText
 10
870.51413144527453
 20
663.80053353315088
 30
0.0
 40
8.0
  1
イナズマプレ－ト（別途工事）
 41
0.7695
  7
FontTableH_0
 72
               5
 11
982.51413144527453
 21
663.80053353315088
 31
0.0
100
AcDbText
  0
TEXT
  5
3AD
100
AcDbEntity
  8
0
 62
               7
100
AcDbText
 10
426.97595444527451
 20
625.80804053315092
 30
0.0
 40
7.9999999999997717
  1
Ｌ－65×65×6 通シ（別途工事）
 41
0.7695
  7
FontTableH_0
 72
               5
 11
543.64261833039109
 21
625.80804053315092
 31
0.0
100
AcDbText
  0
TEXT
  5
3AE
100
AcDbEntity
  8
0
 62
               7
100
AcDbText
 10
1177.2449664452747
 20
942.73333353315093
 30
0.0
 40
8.0000000000000693
  1
20
 50
6.7097941472188474
 41
0.7695
  7
FontTableH_0
 72
               5
 11
1183.2038705931868
 21
943.43437658175299
 31
0.0
100
AcDbText
  0
TEXT
  5
3AF
100
AcDbEntity
  8
0
 62
               7
100
AcDbText
 10
1213.8728964452748
 20
954.6260955331511
 30
0.0
 40
7.9999999999997717
  1
吊リ子
 41
0.7695
  7
FontTableH_0
 72
               5
 11
1237.8728964452748
 21
954.6260955331511
 31
0.0
100
AcDbText
  0
TEXT
  5
3B0
100
AcDbEntity
  8
0
 62
               7
100
AcDbText
 10
1031.5568564452747
 20
751.81859953315097
 30
0.0
 40
8.0
  1
20
 41
0.7695
  7
FontTableH_0
 72
               5
 11
1037.5568564452747
 21
751.81859953315097
 31
0.0
100
AcDbText
  0
TEXT
  5
3B1
100
AcDbEntity
  8
14
 62
               7
100
AcDbText
 10
612.50219944527441
 20
94.915172533150951
 30
0.0
 40
6.0
  1
出隅部詳細図
 41
0.7695
  7
FontTableH_0
 72
               5
 11
648.50219944527441
 21
94.915172533150951
 31
0.0
100
AcDbText
  0
TEXT
  5
3B2
100
AcDbEntity
  8
14
 62
               7
100
AcDbText
 10
714.21396044527444
 20
92.91516153315095
 30
0.0
 40
5.0
  1
1/2
 41
0.7695
  7
FontTableH_0
 72
               5
 11
719.83896044527444
 21
92.91516153315095
 31
0.0
100
AcDbText
  0
ENDSEC
  0
SECTION
  2
OBJECTS
  0
DICTIONARY
  5
19
100
AcDbDictionary
  3
ACAD_GROUP
350
1A
  3
ACAD_MLINESTYLE
350
1B
  3
DWGPROPS
350
3B3
  0
DICTIONARY
  5
1A
102
{ACAD_REACTORS
330
19
102
}
100
AcDbDictionary
  0
DICTIONARY
  5
1B
102
{ACAD_REACTORS
330
19
102
}
100
AcDbDictionary
  3
STANDARD
350
1C
  0
MLINESTYLE
  5
1C
102
{ACAD_REACTORS
330
1B
102
}
100
AcDbMlineStyle
  2
Standard
 70
               0
  3

 62
               0
 51
90.0
 52
90.0
 71
               2
 49
0.5
 62
             256
  6
ByLayer
 49
-0.5
 62
             256
  6
ByLayer
  0
XRECORD
  5
3B3
100
AcDbXrecord
  1
DWGPROPS COOKIE
  2

  3

  4

  6

  7

  0
ENDSEC
  0
EOF
