  0
SECTION
  2
HEADER
  9
$ACADVER
  1
AC1014
  9
$ACADMAINTVER
 70
               0
  9
$DWGCODEPAGE
  3
ANSI_932
  9
$INSBASE
 10
0.0
 20
0.0
 30
0.0
  9
$EXTMIN
 10
0.0
 20
0.0
 30
0.0
  9
$EXTMAX
 10
891.00000000000091
 20
630.00000000000068
 30
0.0
  9
$LIMMIN
 10
0.0
 20
0.0
  9
$LIMMAX
 10
891.00000000000091
 20
630.00000000000068
  9
$ORTHOMODE
 70
               0
  9
$REGENMODE
 70
               1
  9
$FILLMODE
 70
               1
  9
$QTEXTMODE
 70
               0
  9
$MIRRTEXT
 70
               1
  9
$DRAGMODE
 70
               2
  9
$LTSCALE
 40
3.0000000000000031
  9
$OSMODE
 70
               0
  9
$ATTMODE
 70
               1
  9
$TEXTSIZE
 40
0.2
  9
$TRACEWID
 40
0.05
  9
$TEXTSTYLE
  7
Standard
  9
$CLAYER
  8
0
  9
$CELTYPE
  6
Continuous
  9
$CECOLOR
 62
             256
  9
$CELTSCALE
 40
1.0
  9
$DELOBJ
 70
               1
  9
$DISPSILH
 70
               0
  9
$DIMSCALE
 40
1.0
  9
$DIMASZ
 40
0.18
  9
$DIMEXO
 40
0.0625
  9
$DIMDLI
 40
0.38
  9
$DIMRND
 40
0.0
  9
$DIMDLE
 40
0.0
  9
$DIMEXE
 40
0.18
  9
$DIMTP
 40
0.0
  9
$DIMTM
 40
0.0
  9
$DIMTXT
 40
0.18
  9
$DIMCEN
 40
0.09
  9
$DIMTSZ
 40
0.0
  9
$DIMTOL
 70
               0
  9
$DIMLIM
 70
               0
  9
$DIMTIH
 70
               1
  9
$DIMTOH
 70
               1
  9
$DIMSE1
 70
               0
  9
$DIMSE2
 70
               0
  9
$DIMTAD
 70
               0
  9
$DIMZIN
 70
               0
  9
$DIMBLK
  1

  9
$DIMASO
 70
               1
  9
$DIMSHO
 70
               1
  9
$DIMPOST
  1

  9
$DIMAPOST
  1

  9
$DIMALT
 70
               0
  9
$DIMALTD
 70
               2
  9
$DIMALTF
 40
25.399999999999999
  9
$DIMLFAC
 40
1.0
  9
$DIMTOFL
 70
               0
  9
$DIMTVP
 40
0.0
  9
$DIMTIX
 70
               0
  9
$DIMSOXD
 70
               0
  9
$DIMSAH
 70
               0
  9
$DIMBLK1
  1

  9
$DIMBLK2
  1

  9
$DIMSTYLE
  2
Standard
  9
$DIMCLRD
 70
               0
  9
$DIMCLRE
 70
               0
  9
$DIMCLRT
 70
               0
  9
$DIMTFAC
 40
1.0
  9
$DIMGAP
 40
0.09
  9
$DIMJUST
 70
               0
  9
$DIMSD1
 70
               0
  9
$DIMSD2
 70
               0
  9
$DIMTOLJ
 70
               1
  9
$DIMTZIN
 70
               0
  9
$DIMALTZ
 70
               0
  9
$DIMALTTZ
 70
               0
  9
$DIMFIT
 70
               3
  9
$DIMUPT
 70
               0
  9
$DIMUNIT
 70
               2
  9
$DIMDEC
 70
               4
  9
$DIMTDEC
 70
               4
  9
$DIMALTU
 70
               2
  9
$DIMALTTD
 70
               2
  9
$DIMTXSTY
  7
Standard
  9
$DIMAUNIT
 70
               0
  9
$LUNITS
 70
               2
  9
$LUPREC
 70
               4
  9
$SKETCHINC
 40
0.1
  9
$FILLETRAD
 40
0.0
  9
$AUNITS
 70
               0
  9
$AUPREC
 70
               0
  9
$MENU
  1
acad
  9
$ELEVATION
 40
0.0
  9
$PELEVATION
 40
0.0
  9
$THICKNESS
 40
0.0
  9
$LIMCHECK
 70
               0
  9
$BLIPMODE
 70
               1
  9
$CHAMFERA
 40
0.0
  9
$CHAMFERB
 40
0.0
  9
$CHAMFERC
 40
0.0
  9
$CHAMFERD
 40
0.0
  9
$SKPOLY
 70
               0
  9
$TDCREATE
 40
0.000000000
  9
$TDUPDATE
 40
0.000000000
  9
$TDINDWG
 40
0.0000000000
  9
$TDUSRTIMER
 40
0.0000000000
  9
$USRTIMER
 70
               1
  9
$ANGBASE
 50
0.0
  9
$ANGDIR
 70
               0
  9
$PDMODE
 70
               0
  9
$PDSIZE
 40
0.0
  9
$PLINEWID
 40
0.0
  9
$COORDS
 70
               0
  9
$SPLFRAME
 70
               0
  9
$SPLINETYPE
 70
               6
  9
$SPLINESEGS
 70
               8
  9
$ATTDIA
 70
               0
  9
$ATTREQ
 70
               1
  9
$HANDLING
 70
               1
  9
$HANDSEED
  5
17D
  9
$SURFTAB1
 70
               6
  9
$SURFTAB2
 70
               6
  9
$SURFTYPE
 70
               6
  9
$SURFU
 70
               6
  9
$SURFV
 70
               6
  9
$UCSNAME
  2

  9
$UCSORG
 10
0.0
 20
0.0
 30
0.0
  9
$UCSXDIR
 10
1.0
 20
0.0
 30
0.0
  9
$UCSYDIR
 10
0.0
 20
1.0
 30
0.0
  9
$PUCSNAME
  2

  9
$PUCSORG
 10
0.0
 20
0.0
 30
0.0
  9
$PUCSXDIR
 10
1.0
 20
0.0
 30
0.0
  9
$PUCSYDIR
 10
0.0
 20
1.0
 30
0.0
  9
$USERI1
 70
               0
  9
$USERI2
 70
               0
  9
$USERI3
 70
               0
  9
$USERI4
 70
               0
  9
$USERI5
 70
               0
  9
$USERR1
 40
0.0
  9
$USERR2
 40
0.0
  9
$USERR3
 40
0.0
  9
$USERR4
 40
0.0
  9
$USERR5
 40
0.0
  9
$WORLDVIEW
 70
               1
  9
$SHADEDGE
 70
               3
  9
$SHADEDIF
 70
              70
  9
$TILEMODE
 70
               1
  9
$MAXACTVP
 70
              16
  9
$PINSBASE
 10
0.0
 20
0.0
 30
0.0
  9
$PLIMCHECK
 70
               0
  9
$PEXTMIN
 10
1.0000000000000000E+20
 20
1.0000000000000000E+20
 30
1.0000000000000000E+20
  9
$PEXTMAX
 10
-1.0000000000000000E+20
 20
-1.0000000000000000E+20
 30
-1.0000000000000000E+20
  9
$PLIMMIN
 10
0.0
 20
0.0
  9
$PLIMMAX
 10
12.0
 20
9.0
  9
$UNITMODE
 70
               0
  9
$VISRETAIN
 70
               0
  9
$PLINEGEN
 70
               1
  9
$PSLTSCALE
 70
               0
  9
$TREEDEPTH
 70
            3020
  9
$PICKSTYLE
 70
               1
  9
$CMLSTYLE
  2
Standard
  9
$CMLJUST
 70
               0
  9
$CMLSCALE
 40
1.0
  9
$PROXYGRAPHICS
 70
               0
  9
$MEASUREMENT
 70
               0
  0
ENDSEC
  0
SECTION
  2
CLASSES
  0
CLASS
  1
LWPOLYLINE
  2
AcDbPolyline
  3
"AutoCAD"
 90
        0
280
               0
281
               1
  0
CLASS
  1
IMAGE
  2
AcDbRasterImage
  3
ISM
 90
      127
280
               0
281
               1
  0
CLASS
  1
OLE2FRAME
  2
AcDbOle2Frame
  3
""
 90
        0
280
               0
281
               1
  0
CLASS
  1
HATCH
  2
AcDbHatch
  3
"ACAD_SEDONA"
 90
        0
280
               0
281
               1
  0
CLASS
  1
DICTIONARYVAR
  2
AcDbDictionaryVar
  3
"AutoCAD"
 90
        0
280
               0
281
               0
  0
CLASS
  1
RASTERVARIABLES
  2
AcDbRasterVariables
  3
ISM
 90
        0
280
               0
281
               0
  0
CLASS
  1
IMAGEDEF
  2
AcDbRasterImageDef
  3
ISM
 90
        0
280
               0
281
               0
  0
CLASS
  1
IMAGEDEF_REACTOR
  2
AcDbRasterImageDefReactor
  3
ISM
 90
        1
280
               0
281
               0
  0
CLASS
  1
IDBUFFER
  2
AcDbIdBuffer
  3
"Acad"
 90
        0
280
               0
281
               0
  0
CLASS
  1
SPATIAL_FILTER
  2
AcDbSpatialFilter
  3
"Acad"
 90
        0
280
               0
281
               0
  0
CLASS
  1
XRECORD
  2
AcDbXrecord
  3
"<Built In>"
 90
        0
280
               0
281
               0
  0
CLASS
  1
SORTENTSTABLE
  2
AcDbSortentsTable
  3
"AutoCAD"
 90
        0
280
               0
281
               0
  0
CLASS
  1
LAYER_INDEX
  2
AcDbLayerIndex
  3
"Acad"
 90
        0
280
               0
281
               0
  0
CLASS
  1
SPATIAL_INDEX
  2
AcDbSpatialIndex
  3
"Acad"
 90
        0
280
               0
281
               0
  0
CLASS
  1
OBJECT_PTR
  2
CAseDLPNTableRecord
  3
"ASE-LPNTableRecord"
 90
        1
280
               0
281
               0
  0
CLASS
  1
LAYOUT
  2
AcDbLayout
  3
"AutoCAD 2000"
 90
        0
280
               0
281
               0
  0
CLASS
  1
PLOTSETTINGS
  2
AcDbPlotSettings
  3
"AutoCAD 2000"
 90
        0
280
               0
281
               0
  0
CLASS
  1
ACDBDICTIONARYWDFLT
  2
AcDbDictionaryWithDefault
  3
"AutoCAD 2000"
 90
        0
280
               0
281
               0
  0
CLASS
  1
ACDBPLACEHOLDER
  2
AcDbPlaceHolder
  3
"AutoCAD 2000"
 90
        0
280
               0
281
               0
  0
CLASS
  1
VBA_PROJECT
  2
AcDbVbaProject
  3
"acadvba"
 90
        0
280
               0
281
               0
  0
CLASS
  1
WIPEOUT
  2
AcDbWipeout
  3
WipeOut|AutoCAD Express Tool|expresstools@autodesk.com
 90
      127
280
               0
281
               1
  0
CLASS
  1
WIPEOUTVARIABLES
  2
AcDbWipeoutVariables
  3
WipeOut|AutoCAD Express Tool|expresstools@autodesk.com
 90
        0
280
               0
281
               0
  0
CLASS
  1
RTEXT
  2
RText
  3
RText|AutoCAD Express Tool|expresstools@autodesk.com
 90
        0
280
               0
281
               1
  0
CLASS
  1
ARCALIGNEDTEXT
  2
AcDbArcAlignedText
  3
ATEXT|AutoCAD Express Tool|expresstools@autodesk.com
 90
        0
280
               0
281
               1
  0
ENDSEC
  0
SECTION
  2
TABLES
  0
TABLE
  2
VPORT
  5
7
100
AcDbSymbolTable
 70
               1
  0
VPORT
  5
15
100
AcDbSymbolTableRecord
100
AcDbViewportTableRecord
  2
*ACTIVE
 70
               0
 10
0.0
 20
0.0
 11
1.0
 21
1.0
 12
445.50000000000045
 22
315.00000000000034
 13
0.0
 23
0.0
 14
10.0
 24
10.0
 15
10.0
 25
10.0
 16
0.0
 26
0.0
 36
1.0
 17
0.0
 27
0.0
 37
0.0
 40
630.00000000000068
 41
1.4142857142857141
 42
50.0
 43
0.0
 44
0.0
 50
0.0
 51
0.0
 71
               0
 72
             100
 73
               1
 74
               1
 75
               0
 76
               0
 77
               0
 78
               0
  0
ENDTAB
  0
TABLE
  2
LTYPE
  5
4
100
AcDbSymbolTable
 70
              24
  0
LTYPE
  5
11
100
AcDbSymbolTableRecord
100
AcDbLinetypeTableRecord
  2
ByBlock
 70
              64
  3

 72
              65
 73
               0
 40
0.0
  0
LTYPE
  5
12
100
AcDbSymbolTableRecord
100
AcDbLinetypeTableRecord
  2
ByLayer
 70
              64
  3

 72
              65
 73
               0
 40
0.0
  0
LTYPE
  5
13
100
AcDbSymbolTableRecord
100
AcDbLinetypeTableRecord
  2
Continuous
 70
              64
  3
Solid line
 72
              65
 73
               0
 40
0.0
  0
LTYPE
  5
1D
100
AcDbSymbolTableRecord
100
AcDbLinetypeTableRecord
  2
DOT
 70
              64
  3
Dot . . . . . . . . . . . . . . . . . . . . . .
 72
              65
 73
               2
 40
6.3499999999999996
 49
0.35
 74
               0
 49
-6.0
 74
               0
  0
LTYPE
  5
1E
100
AcDbSymbolTableRecord
100
AcDbLinetypeTableRecord
  2
DASHED
 70
              64
  3
Dashed __ __ __ __ __ __ __ __ __ __ __ __ __ _
 72
              65
 73
               2
 40
12.699999999999999
 49
6.3499999999999996
 74
               0
 49
-6.3499999999999996
 74
               0
  0
LTYPE
  5
1F
100
AcDbSymbolTableRecord
100
AcDbLinetypeTableRecord
  2
DASHDOT
 70
              64
  3
Dash dot __ . __ . __ . __ . __ . __ . __ . __
 72
              65
 73
               4
 40
25.399999999999999
 49
12.699999999999999
 74
               0
 49
-6.0
 74
               0
 49
0.7
 74
               0
 49
-6.0
 74
               0
  0
LTYPE
  5
20
100
AcDbSymbolTableRecord
100
AcDbLinetypeTableRecord
  2
DIVIDE
 70
              64
  3
Divide ____ . . ____ . . ____ . . ____ . . ____
 72
              65
 73
               6
 40
31.75
 49
12.699999999999999
 74
               0
 49
-6.0
 74
               0
 49
0.875
 74
               0
 49
-6.0
 74
               0
 49
0.875
 74
               0
 49
-6.0
 74
               0
  0
LTYPE
  5
21
100
AcDbSymbolTableRecord
100
AcDbLinetypeTableRecord
  2
HIDDEN
 70
              64
  3
Hidden __ __ __ __ __ __ __ __ __ __ __ __ __ _
 72
              65
 73
               2
 40
9.5250000000000004
 49
6.3499999999999996
 74
               0
 49
-3.1749999999999998
 74
               0
  0
LTYPE
  5
22
100
AcDbSymbolTableRecord
100
AcDbLinetypeTableRecord
  2
CENTER
 70
              64
  3
Center ____ _ ____ _ ____ _ ____ _ ____ _ ____
 72
              65
 73
               4
 40
50.799999999999997
 49
31.75
 74
               0
 49
-6.3499999999999996
 74
               0
 49
6.3499999999999996
 74
               0
 49
-6.3499999999999996
 74
               0
  0
LTYPE
  5
23
100
AcDbSymbolTableRecord
100
AcDbLinetypeTableRecord
  2
PHANTOM
 70
              64
  3
Phantom ______  __  __  ______  __  __  ______
 72
              65
 73
               6
 40
63.5
 49
31.75
 74
               0
 49
-6.3499999999999996
 74
               0
 49
6.3499999999999996
 74
               0
 49
-6.3499999999999996
 74
               0
 49
6.3499999999999996
 74
               0
 49
-6.3499999999999996
 74
               0
  0
LTYPE
  5
24
100
AcDbSymbolTableRecord
100
AcDbLinetypeTableRecord
  2
ACAD_ISO02W100
 70
              64
  3
ISO dash __ __ __ __ __ __ __ __ __ __ __ __ __
 72
              65
 73
               2
 40
15.0
 49
12.0
 74
               0
 49
-3.0
 74
               0
  0
LTYPE
  5
25
100
AcDbSymbolTableRecord
100
AcDbLinetypeTableRecord
  2
ACAD_ISO03W100
 70
              64
  3
ISO dash space __ __ __ __ __ __ __ __ __ __ __ __ __ __
 72
              65
 73
               2
 40
30.0
 49
12.0
 74
               0
 49
-18.0
 74
               0
  0
LTYPE
  5
26
100
AcDbSymbolTableRecord
100
AcDbLinetypeTableRecord
  2
ACAD_ISO04W100
 70
              64
  3
ISO long-dash dot ____ . ____ . ____ . ____ . _
 72
              65
 73
               4
 40
30.0
 49
24.0
 74
               0
 49
-3.0
 74
               0
 49
0.0
 74
               0
 49
-3.0
 74
               0
  0
LTYPE
  5
27
100
AcDbSymbolTableRecord
100
AcDbLinetypeTableRecord
  2
ACAD_ISO05W100
 70
              64
  3
ISO long-dash double-dot ____ .. ____ .. ____ .
 72
              65
 73
               6
 40
33.0
 49
24.0
 74
               0
 49
-3.0
 74
               0
 49
0.0
 74
               0
 49
-3.0
 74
               0
 49
0.0
 74
               0
 49
-3.0
 74
               0
  0
LTYPE
  5
28
100
AcDbSymbolTableRecord
100
AcDbLinetypeTableRecord
  2
ACAD_ISO06W100
 70
              64
  3
ISO long-dash triple-dot ____ ... ____ ... ____
 72
              65
 73
               8
 40
36.0
 49
24.0
 74
               0
 49
-3.0
 74
               0
 49
0.0
 74
               0
 49
-3.0
 74
               0
 49
0.0
 74
               0
 49
-3.0
 74
               0
 49
0.0
 74
               0
 49
-3.0
 74
               0
  0
LTYPE
  5
29
100
AcDbSymbolTableRecord
100
AcDbLinetypeTableRecord
  2
ACAD_ISO07W100
 70
              64
  3
ISO dot . . . . . . . . . . . . . . . . . . . .
 72
              65
 73
               2
 40
3.0
 49
0.0
 74
               0
 49
-3.0
 74
               0
  0
LTYPE
  5
2A
100
AcDbSymbolTableRecord
100
AcDbLinetypeTableRecord
  2
ACAD_ISO08W100
 70
              64
  3
ISO long-dash short-dash ____ __ ____ __ ____ _
 72
              65
 73
               4
 40
36.0
 49
24.0
 74
               0
 49
-3.0
 74
               0
 49
6.0
 74
               0
 49
-3.0
 74
               0
  0
LTYPE
  5
2B
100
AcDbSymbolTableRecord
100
AcDbLinetypeTableRecord
  2
ACAD_ISO09W100
 70
              64
  3
ISO long-dash double-short-dash ____ __ __ ____
 72
              65
 73
               6
 40
45.0
 49
24.0
 74
               0
 49
-3.0
 74
               0
 49
6.0
 74
               0
 49
-3.0
 74
               0
 49
6.0
 74
               0
 49
-3.0
 74
               0
  0
LTYPE
  5
2C
100
AcDbSymbolTableRecord
100
AcDbLinetypeTableRecord
  2
ACAD_ISO10W100
 70
              64
  3
ISO dash dot __ . __ . __ . __ . __ . __ . __ .
 72
              65
 73
               4
 40
18.0
 49
12.0
 74
               0
 49
-3.0
 74
               0
 49
0.0
 74
               0
 49
-3.0
 74
               0
  0
LTYPE
  5
2D
100
AcDbSymbolTableRecord
100
AcDbLinetypeTableRecord
  2
ACAD_ISO11W100
 70
              64
  3
ISO double-dash dot __ __ . __ __ . __ __ . __ 
 72
              65
 73
               6
 40
33.0
 49
12.0
 74
               0
 49
-3.0
 74
               0
 49
12.0
 74
               0
 49
-3.0
 74
               0
 49
0.0
 74
               0
 49
-3.0
 74
               0
  0
LTYPE
  5
2E
100
AcDbSymbolTableRecord
100
AcDbLinetypeTableRecord
  2
ACAD_ISO12W100
 70
              64
  3
ISO dash double-dot __ . . __ . . __ . . __ . .
 72
              65
 73
               6
 40
21.0
 49
12.0
 74
               0
 49
-3.0
 74
               0
 49
0.0
 74
               0
 49
-3.0
 74
               0
 49
0.0
 74
               0
 49
-3.0
 74
               0
  0
LTYPE
  5
2F
100
AcDbSymbolTableRecord
100
AcDbLinetypeTableRecord
  2
ACAD_ISO13W100
 70
              64
  3
ISO double-dash double-dot __ __ . . __ __ . . 
 72
              65
 73
               8
 40
36.0
 49
12.0
 74
               0
 49
-3.0
 74
               0
 49
12.0
 74
               0
 49
-3.0
 74
               0
 49
0.0
 74
               0
 49
-3.0
 74
               0
 49
0.0
 74
               0
 49
-3.0
 74
               0
  0
LTYPE
  5
30
100
AcDbSymbolTableRecord
100
AcDbLinetypeTableRecord
  2
ACAD_ISO14W100
 70
              64
  3
ISO dash triple-dot __ . . . __ . . . __ . . . 
 72
              65
 73
               8
 40
24.0
 49
12.0
 74
               0
 49
-3.0
 74
               0
 49
0.0
 74
               0
 49
-3.0
 74
               0
 49
0.0
 74
               0
 49
-3.0
 74
               0
 49
0.0
 74
               0
 49
-3.0
 74
               0
  0
LTYPE
  5
31
100
AcDbSymbolTableRecord
100
AcDbLinetypeTableRecord
  2
ACAD_ISO15W100
 70
              64
  3
ISO double-dash double-dot __ __ . . __ __ . . 
 72
              65
 73
              10
 40
39.0
 49
12.0
 74
               0
 49
-3.0
 74
               0
 49
12.0
 74
               0
 49
-3.0
 74
               0
 49
0.0
 74
               0
 49
-3.0
 74
               0
 49
0.0
 74
               0
 49
-3.0
 74
               0
 49
0.0
 74
               0
 49
-3.0
 74
               0
  0
ENDTAB
  0
TABLE
  2
LAYER
  5
2
100
AcDbSymbolTable
 70
              16
  0
LAYER
  5
14
100
AcDbSymbolTableRecord
100
AcDbLayerTableRecord
  2
0
 70
               0
 62
               7
  6
Continuous
  0
LAYER
  5
35
100
AcDbSymbolTableRecord
100
AcDbLayerTableRecord
  2
Layer00001
 70
               0
 62
               7
  6
Continuous
  0
LAYER
  5
36
100
AcDbSymbolTableRecord
100
AcDbLayerTableRecord
  2
Layer00002
 70
               0
 62
               7
  6
Continuous
  0
LAYER
  5
37
100
AcDbSymbolTableRecord
100
AcDbLayerTableRecord
  2
Layer00003
 70
               0
 62
               7
  6
Continuous
  0
LAYER
  5
38
100
AcDbSymbolTableRecord
100
AcDbLayerTableRecord
  2
Layer00004
 70
               0
 62
               7
  6
Continuous
  0
LAYER
  5
39
100
AcDbSymbolTableRecord
100
AcDbLayerTableRecord
  2
Layer00005
 70
               0
 62
               7
  6
Continuous
  0
LAYER
  5
3A
100
AcDbSymbolTableRecord
100
AcDbLayerTableRecord
  2
Layer00006
 70
               0
 62
               7
  6
Continuous
  0
LAYER
  5
3B
100
AcDbSymbolTableRecord
100
AcDbLayerTableRecord
  2
Layer00007
 70
               0
 62
               7
  6
Continuous
  0
LAYER
  5
3C
100
AcDbSymbolTableRecord
100
AcDbLayerTableRecord
  2
Layer00008
 70
               0
 62
               7
  6
Continuous
  0
LAYER
  5
3D
100
AcDbSymbolTableRecord
100
AcDbLayerTableRecord
  2
Layer00009
 70
               0
 62
               7
  6
Continuous
  0
LAYER
  5
3E
100
AcDbSymbolTableRecord
100
AcDbLayerTableRecord
  2
Layer00010
 70
               0
 62
               7
  6
Continuous
  0
LAYER
  5
3F
100
AcDbSymbolTableRecord
100
AcDbLayerTableRecord
  2
Layer00011
 70
               0
 62
               7
  6
Continuous
  0
LAYER
  5
40
100
AcDbSymbolTableRecord
100
AcDbLayerTableRecord
  2
Layer00012
 70
               0
 62
               7
  6
Continuous
  0
LAYER
  5
41
100
AcDbSymbolTableRecord
100
AcDbLayerTableRecord
  2
Layer00013
 70
               0
 62
               7
  6
Continuous
  0
LAYER
  5
42
100
AcDbSymbolTableRecord
100
AcDbLayerTableRecord
  2
Layer00014
 70
               0
 62
               7
  6
Continuous
  0
LAYER
  5
43
100
AcDbSymbolTableRecord
100
AcDbLayerTableRecord
  2
Layer00015
 70
               0
 62
               7
  6
Continuous
  0
ENDTAB
  0
TABLE
  2
STYLE
  5
3
100
AcDbSymbolTable
 70
               4
  0
STYLE
  5
17
100
AcDbSymbolTableRecord
100
AcDbTextStyleTableRecord
  2
Standard
 70
               0
 40
0.0
 41
1.0
 50
0.0
 71
               0
 42
0.0
  3
txt.shx
  4
bigfont.shx
  0
STYLE
  5
32
100
AcDbSymbolTableRecord
100
AcDbTextStyleTableRecord
  2
STANDARD_T
 70
               4
 40
0.0
 41
1.0
 50
0.0
 71
               0
 42
0.0
  3
txt.shx
  4
bigfont.shx
  0
STYLE
  5
33
100
AcDbSymbolTableRecord
100
AcDbTextStyleTableRecord
  2
FontTableH_0
 70
               0
 40
0.0
 41
1.0
 50
0.0
 71
               0
 42
0.0
  3
MS Gothic.ttf
  4

1001
ACAD
1000
MS Gothic
1071
    32817
  0
STYLE
  5
34
100
AcDbSymbolTableRecord
100
AcDbTextStyleTableRecord
  2
FontTableV_0
 70
               0
 40
0.0
 41
1.0
 50
0.0
 71
               0
 42
0.0
  3
@MS Gothic.ttf
  4

1001
ACAD
1000
@MS Gothic
1071
    32817
  0
ENDTAB
  0
TABLE
  2
VIEW
  5
5
100
AcDbSymbolTable
 70
               0
  0
ENDTAB
  0
TABLE
  2
UCS
  5
6
100
AcDbSymbolTable
 70
               0
  0
ENDTAB
  0
TABLE
  2
APPID
  5
8
100
AcDbSymbolTable
 70
               1
  0
APPID
  5
16
100
AcDbSymbolTableRecord
100
AcDbRegAppTableRecord
  2
ACAD
 70
               0
  0
ENDTAB
  0
TABLE
  2
DIMSTYLE
  5
9
100
AcDbSymbolTable
 70
               1
  0
DIMSTYLE
105
18
100
AcDbSymbolTableRecord
100
AcDbDimStyleTableRecord
  2
Standard
 70
               0
  3

  4

  5

  6

  7

 40
1.0
 41
0.18
 42
0.0625
 43
0.38
 44
0.18
 45
0.0
 46
0.0
 47
0.0
 48
0.0
 71
               0
 72
               0
 73
               1
 74
               1
 75
               0
 76
               0
 77
               0
 78
               0
140
0.18
141
0.09
142
0.0
143
25.399999999999999
144
1.0
145
0.0
146
1.0
147
0.09
170
               0
171
               2
172
               0
173
               0
174
               0
175
               0
176
               0
177
               0
178
               0
270
               2
271
               4
272
               4
273
               2
274
               2
275
               0
280
               0
281
               0
282
               0
283
               1
284
               0
285
               0
286
               0
287
               0
288
               0
340
17
  0
ENDTAB
  0
TABLE
  2
BLOCK_RECORD
  5
1
100
AcDbSymbolTable
 70
               0
  0
BLOCK_RECORD
  5
A
100
AcDbSymbolTableRecord
100
AcDbBlockTableRecord
  2
*MODEL_SPACE
  0
BLOCK_RECORD
  5
B
100
AcDbSymbolTableRecord
100
AcDbBlockTableRecord
  2
*PAPER_SPACE
  0
ENDTAB
  0
ENDSEC
  0
SECTION
  2
BLOCKS
  0
BLOCK
  5
D
100
AcDbEntity
  8
0
100
AcDbBlockBegin
  2
*MODEL_SPACE
 70
               0
 10
0.0
 20
0.0
 30
0.0
  3
*MODEL_SPACE
  1

  0
ENDBLK
  5
E
100
AcDbEntity
  8
0
100
AcDbBlockEnd
  0
BLOCK
  5
F
100
AcDbEntity
 67
               1
  8
0
100
AcDbBlockBegin
  2
*PAPER_SPACE
 70
               0
 10
0.0
 20
0.0
 30
0.0
  3
*PAPER_SPACE
  1

  0
ENDBLK
  5
10
100
AcDbEntity
 67
               1
  8
0
100
AcDbBlockEnd
  0
ENDSEC
  0
SECTION
  2
ENTITIES
  0
LINE
  5
44
100
AcDbEntity
  8
0
  6
Continuous
 62
               3
100
AcDbLine
 10
386.66268239027295
 20
363.0638267279474
 30
0.0
 11
668.21567904844335
 21
447.52972572539841
 31
0.0
  0
LINE
  5
45
100
AcDbEntity
  8
0
  6
Continuous
 62
               3
100
AcDbLine
 10
383.21450776347683
 20
374.55774215060131
 30
0.0
 11
668.21567386358731
 21
460.05809198063423
 31
0.0
  0
LINE
  5
46
100
AcDbEntity
  8
0
  6
Continuous
 62
               3
100
AcDbLine
 10
379.7663331366806
 20
386.05165757325517
 30
0.0
 11
668.2156686787315
 21
472.58645823587017
 31
0.0
  0
LINE
  5
47
100
AcDbEntity
  8
0
  6
Continuous
 62
               3
100
AcDbLine
 10
386.66268239027295
 20
363.0638267279474
 30
0.0
 11
383.21450776347683
 21
374.55774215060131
 31
0.0
  0
LINE
  5
48
100
AcDbEntity
  8
0
  6
Continuous
 62
               3
100
AcDbLine
 10
383.21450776347683
 20
374.55774215060131
 30
0.0
 11
379.7663331366806
 21
386.05165757325517
 31
0.0
  0
LINE
  5
49
100
AcDbEntity
  8
0
  6
Continuous
 62
               6
100
AcDbLine
 10
419.80347176757937
 20
268.60299845203372
 30
0.0
 11
463.28878520796513
 21
281.64859248414945
 31
0.0
  0
LINE
  5
4A
100
AcDbEntity
  8
0
  6
Continuous
 62
               6
100
AcDbLine
 10
461.96698496176373
 20
286.05459330482131
 30
0.0
 11
457.54182749663835
 21
300.80511818857264
 31
0.0
  0
LINE
  5
4B
100
AcDbEntity
  8
0
  6
Continuous
 62
               6
100
AcDbLine
 10
457.54182749663835
 20
300.80511818857264
 30
0.0
 11
455.33882708630244
 21
300.14421806547182
 31
0.0
  0
LINE
  5
4C
100
AcDbEntity
  8
0
  6
Continuous
 62
               6
100
AcDbLine
 10
455.33882708630244
 20
300.14421806547182
 30
0.0
 11
459.76398455142782
 21
285.39369318172061
 31
0.0
  0
LINE
  5
4D
100
AcDbEntity
  8
0
  6
Continuous
 62
               6
100
AcDbLine
 10
458.22188426419268
 20
282.52979264828394
 30
0.0
 11
419.14257164447861
 21
270.80599886236962
 31
0.0
  0
LINE
  5
4E
100
AcDbEntity
  8
0
  6
Continuous
 62
               6
100
AcDbLine
 10
416.27867111104183
 20
272.34809914960471
 30
0.0
 11
390.18748304681043
 21
359.31872603037641
 31
0.0
  0
LINE
  5
4F
100
AcDbEntity
  8
0
  6
Continuous
 62
               6
100
AcDbLine
 10
391.72958333404563
 20
362.18262656381313
 30
0.0
 11
430.80889595375947
 21
373.90642034972734
 31
0.0
  0
LINE
  5
50
100
AcDbEntity
  8
0
  6
Continuous
 62
               6
100
AcDbLine
 10
433.67279648719614
 20
372.36432006249214
 30
0.0
 11
438.09795395232152
 21
357.61379517874104
 31
0.0
  0
LINE
  5
51
100
AcDbEntity
  8
0
  6
Continuous
 62
               6
100
AcDbLine
 10
438.09795395232152
 20
357.61379517874104
 30
0.0
 11
440.30095436265742
 21
358.27469530184175
 31
0.0
  0
LINE
  5
52
100
AcDbEntity
  8
0
  6
Continuous
 62
               6
100
AcDbLine
 10
440.30095436265742
 20
358.27469530184175
 30
0.0
 11
435.87579689753204
 21
373.0252201855929
 31
0.0
  0
LINE
  5
53
100
AcDbEntity
  8
0
  6
Continuous
 62
               6
100
AcDbLine
 10
430.14799583065872
 20
376.10942076006324
 30
0.0
 11
391.0686832109447
 21
364.38562697414915
 31
0.0
  0
LINE
  5
54
100
AcDbEntity
  8
0
  6
Continuous
 62
               6
100
AcDbLine
 10
387.98448263647441
 20
358.65782590727565
 30
0.0
 11
414.07567070070593
 21
271.687199026504
 31
0.0
  0
LINE
  5
55
100
AcDbEntity
  8
0
  6
DIVIDE
 62
               6
100
AcDbLine
 10
416.83421037473909
 20
262.49206677972631
 30
0.0
 11
668.21572441593253
 21
337.90652099208364
 31
0.0
  0
LINE
  5
56
100
AcDbEntity
  8
0
  6
DASHED
 62
               6
100
AcDbLine
 10
433.59617036610939
 20
241.41988850486115
 30
0.0
 11
471.90922177495543
 21
252.91380392751483
 31
0.0
  0
LINE
  5
57
100
AcDbEntity
  8
0
  6
DIVIDE
 62
               6
100
AcDbLine
 10
425.45464694172949
 20
233.75727822309182
 30
0.0
 11
668.21573737807228
 21
306.58560535399391
 31
0.0
  0
LINE
  5
58
100
AcDbEntity
  8
0
  6
DIVIDE
 62
               6
100
AcDbLine
 10
416.83421037473909
 20
262.49206677972631
 30
0.0
 11
425.45464694172949
 21
233.75727822309182
 31
0.0
  0
LINE
  5
59
100
AcDbEntity
  8
0
  6
DASHED
 62
               6
100
AcDbLine
 10
464.72552463579689
 20
276.85946105804362
 30
0.0
 11
471.90922177495543
 21
252.91380392751495
 31
0.0
  0
LINE
  5
5A
100
AcDbEntity
  8
0
  6
DASHED
 62
               6
100
AcDbLine
 10
426.41247322695074
 20
265.36554563538982
 30
0.0
 11
433.59617036610939
 21
241.41988850486104
 31
0.0
  0
LINE
  5
5B
100
AcDbEntity
  8
0
  6
DASHED
 62
               6
100
AcDbLine
 10
425.83777745581813
 20
267.2811982058322
 30
0.0
 11
464.15082886466416
 21
278.77511362848594
 31
0.0
  0
LINE
  5
5C
100
AcDbEntity
  8
0
  6
DIVIDE
 62
               6
100
AcDbLine
 10
424.59260328503046
 20
236.63075707875521
 30
0.0
 11
668.21573608185827
 21
309.71769691780293
 31
0.0
  0
LINE
  5
5D
100
AcDbEntity
  8
0
  6
Continuous
 62
               2
100
AcDbLine
 10
377.9847762461693
 20
386.77002728717105
 30
0.0
 11
439.96571516282972
 21
180.16689756496845
 31
0.0
  0
LINE
  5
5E
100
AcDbEntity
  8
0
  6
Continuous
 62
               2
100
AcDbLine
 10
431.48895253862258
 20
213.64292623344761
 30
0.0
 11
441.54612853344463
 21
180.11900625070734
 31
0.0
  0
LINE
  5
5F
100
AcDbEntity
  8
0
  6
Continuous
 62
               2
100
AcDbLine
 10
438.93157606154466
 20
197.0595532468688
 30
0.0
 11
442.83919401849323
 21
181.02894122166742
 31
0.0
  0
LINE
  5
60
100
AcDbEntity
  8
0
  6
Continuous
 62
               3
100
AcDbLine
 10
433.21303985202076
 20
213.11612177657594
 30
0.0
 11
673.8190222267956
 21
285.29791648900783
 31
0.0
  0
LINE
  5
61
100
AcDbEntity
  8
0
  6
Continuous
 62
               2
100
AcDbLine
 10
431.48895253862258
 20
213.64292623344761
 30
0.0
 11
469.80200394746873
 21
225.13684165610164
 31
0.0
  0
LINE
  5
62
100
AcDbEntity
  8
0
  6
Continuous
 62
               3
100
AcDbLine
 10
433.21303985202076
 20
213.11612177657594
 30
0.0
 11
435.79917082211784
 21
204.49568520958564
 31
0.0
  0
LINE
  5
63
100
AcDbEntity
  8
0
  6
Continuous
 62
               3
100
AcDbLine
 10
435.79917082211784
 20
204.49568520958564
 30
0.0
 11
673.81902611543751
 21
275.90164179758091
 31
0.0
  0
LINE
  5
64
100
AcDbEntity
  8
0
  6
Continuous
 62
               7
100
AcDbLine
 10
389.86989968316243
 20
364.0259919158143
 30
0.0
 11
385.70054258515341
 21
366.2709594116788
 31
0.0
  0
LINE
  5
65
100
AcDbEntity
  8
0
  6
Continuous
 62
               7
100
AcDbLine
 10
396.64284363776721
 20
366.05787510219574
 30
0.0
 11
383.66871300160284
 21
373.04372469018125
 31
0.0
  0
LINE
  5
66
100
AcDbEntity
  8
0
  6
Continuous
 62
               7
100
AcDbLine
 10
403.41578759237211
 20
368.08975828857723
 30
0.0
 11
388.47339431552155
 21
376.13540811621471
 31
0.0
  0
LINE
  5
67
100
AcDbEntity
  8
0
  6
Continuous
 62
               7
100
AcDbLine
 10
410.1887315469769
 20
370.12164147495861
 30
0.0
 11
395.24633827012633
 21
378.1672913025962
 31
0.0
  0
LINE
  5
68
100
AcDbEntity
  8
0
  6
Continuous
 62
               7
100
AcDbLine
 10
416.96167550158168
 20
372.1535246613401
 30
0.0
 11
402.01928222473123
 21
380.19917448897763
 31
0.0
  0
LINE
  5
69
100
AcDbEntity
  8
0
  6
Continuous
 62
               7
100
AcDbLine
 10
423.73461945618658
 20
374.18540784772154
 30
0.0
 11
408.79222617933601
 21
382.23105767535912
 31
0.0
  0
LINE
  5
6A
100
AcDbEntity
  8
0
  6
Continuous
 62
               7
100
AcDbLine
 10
430.50756341079136
 20
376.21729103410303
 30
0.0
 11
415.5651701339408
 21
384.2629408617405
 31
0.0
  0
LINE
  5
6B
100
AcDbEntity
  8
0
  6
Continuous
 62
               7
100
AcDbLine
 10
437.28050210125105
 20
378.2491970553034
 30
0.0
 11
422.33811408854569
 21
386.294824048122
 31
0.0
  0
LINE
  5
6C
100
AcDbEntity
  8
0
  6
Continuous
 62
               7
100
AcDbLine
 10
444.05345132000105
 20
380.2810574068659
 30
0.0
 11
429.11105804315048
 21
388.32670723450349
 31
0.0
  0
LINE
  5
6D
100
AcDbEntity
  8
0
  6
Continuous
 62
               7
100
AcDbLine
 10
450.82639527460583
 20
382.31294059324739
 30
0.0
 11
435.88400199775538
 21
390.35859042088487
 31
0.0
  0
LINE
  5
6E
100
AcDbEntity
  8
0
  6
Continuous
 62
               7
100
AcDbLine
 10
457.59933922921061
 20
384.34482377962877
 30
0.0
 11
442.65694595236016
 21
392.39047360726636
 31
0.0
  0
LINE
  5
6F
100
AcDbEntity
  8
0
  6
Continuous
 62
               7
100
AcDbLine
 10
464.37228318381551
 20
386.37670696601026
 30
0.0
 11
449.42988990696495
 21
394.42235679364785
 31
0.0
  0
LINE
  5
70
100
AcDbEntity
  8
0
  6
Continuous
 62
               7
100
AcDbLine
 10
471.14522713842041
 20
388.40859015239175
 30
0.0
 11
456.20283386156984
 21
396.45423998002923
 31
0.0
  0
LINE
  5
71
100
AcDbEntity
  8
0
  6
Continuous
 62
               7
100
AcDbLine
 10
477.91817109302519
 20
390.44047333877313
 30
0.0
 11
462.97577781617463
 21
398.48612316641072
 31
0.0
  0
LINE
  5
72
100
AcDbEntity
  8
0
  6
Continuous
 62
               7
100
AcDbLine
 10
484.69111504762998
 20
392.47235652515462
 30
0.0
 11
469.74872177077953
 21
400.51800635279221
 31
0.0
  0
LINE
  5
73
100
AcDbEntity
  8
0
  6
Continuous
 62
               7
100
AcDbLine
 10
491.46405900223488
 20
394.50423971153612
 30
0.0
 11
476.52166572538431
 21
402.54988953917359
 31
0.0
  0
LINE
  5
74
100
AcDbEntity
  8
0
  6
Continuous
 62
               7
100
AcDbLine
 10
498.23700295683966
 20
396.53612289791749
 30
0.0
 11
483.29460967998909
 21
404.58177272555508
 31
0.0
  0
LINE
  5
75
100
AcDbEntity
  8
0
  6
Continuous
 62
               7
100
AcDbLine
 10
505.00994691144444
 20
398.56800608429899
 30
0.0
 11
490.06755363459399
 21
406.61365591193646
 31
0.0
  0
LINE
  5
76
100
AcDbEntity
  8
0
  6
Continuous
 62
               7
100
AcDbLine
 10
511.78289086604934
 20
400.59988927068048
 30
0.0
 11
496.84049758919878
 21
408.64553909831795
 31
0.0
  0
LINE
  5
77
100
AcDbEntity
  8
0
  6
Continuous
 62
               7
100
AcDbLine
 10
518.55583482065413
 20
402.63177245706186
 30
0.0
 11
503.61344154380356
 21
410.67742228469945
 31
0.0
  0
LINE
  5
78
100
AcDbEntity
  8
0
  6
Continuous
 62
               7
100
AcDbLine
 10
525.32877877525891
 20
404.66365564344335
 30
0.0
 11
510.38638549840846
 21
412.70930547108082
 31
0.0
  0
LINE
  5
79
100
AcDbEntity
  8
0
  6
Continuous
 62
               7
100
AcDbLine
 10
532.10172272986381
 20
406.69553882982473
 30
0.0
 11
517.15932945301324
 21
414.74118865746232
 31
0.0
  0
LINE
  5
7A
100
AcDbEntity
  8
0
  6
Continuous
 62
               7
100
AcDbLine
 10
538.87466668446859
 20
408.72742201620622
 30
0.0
 11
523.93227340761803
 21
416.77307184384381
 31
0.0
  0
LINE
  5
7B
100
AcDbEntity
  8
0
  6
Continuous
 62
               7
100
AcDbLine
 10
545.64761063907338
 20
410.75930520258771
 30
0.0
 11
530.70521736222292
 21
418.80495503022519
 31
0.0
  0
LINE
  5
7C
100
AcDbEntity
  8
0
  6
Continuous
 62
               7
100
AcDbLine
 10
552.42055459367828
 20
412.7911883889692
 30
0.0
 11
537.47816131682782
 21
420.83683821660668
 31
0.0
  0
LINE
  5
7D
100
AcDbEntity
  8
0
  6
Continuous
 62
               7
100
AcDbLine
 10
559.19349854828317
 20
414.82307157535058
 30
0.0
 11
544.25110527143261
 21
422.86872140298806
 31
0.0
  0
LINE
  5
7E
100
AcDbEntity
  8
0
  6
Continuous
 62
               7
100
AcDbLine
 10
565.96644250288796
 20
416.85495476173207
 30
0.0
 11
551.02404922603739
 21
424.90060458936955
 31
0.0
  0
LINE
  5
7F
100
AcDbEntity
  8
0
  6
Continuous
 62
               7
100
AcDbLine
 10
572.73938645749286
 20
418.88683794811345
 30
0.0
 11
557.79699318064229
 21
426.93248777575104
 31
0.0
  0
LINE
  5
80
100
AcDbEntity
  8
0
  6
Continuous
 62
               7
100
AcDbLine
 10
579.51233041209775
 20
420.91872113449494
 30
0.0
 11
564.56993713524707
 21
428.96437096213242
 31
0.0
  0
LINE
  5
81
100
AcDbEntity
  8
0
  6
Continuous
 62
               7
100
AcDbLine
 10
586.28527436670265
 20
422.95060432087644
 30
0.0
 11
571.34288108985197
 21
430.99625414851391
 31
0.0
  0
LINE
  5
82
100
AcDbEntity
  8
0
  6
Continuous
 62
               7
100
AcDbLine
 10
593.05821832130755
 20
424.98248750725782
 30
0.0
 11
578.11582504445698
 21
433.0281373348954
 31
0.0
  0
LINE
  5
83
100
AcDbEntity
  8
0
  6
Continuous
 62
               7
100
AcDbLine
 10
599.83116227591233
 20
427.01437069363931
 30
0.0
 11
584.88876899906177
 21
435.06002052127678
 31
0.0
  0
LINE
  5
84
100
AcDbEntity
  8
0
  6
Continuous
 62
               7
100
AcDbLine
 10
603.38026092119924
 20
430.78211573137673
 30
0.0
 11
591.66171295366667
 21
437.09190370765828
 31
0.0
  0
LINE
  5
85
100
AcDbEntity
  8
0
  6
Continuous
 62
               7
100
AcDbLine
 10
601.34843133764855
 20
437.55488100987918
 30
0.0
 11
598.43465690827145
 21
439.12378689403965
 31
0.0
  0
LINE
  5
86
100
AcDbEntity
  8
0
  6
Continuous
 62
               7
100
AcDbLine
 10
598.54912418653385
 20
446.88590484692827
 30
0.0
 11
593.58651815612552
 21
437.66934526839589
 31
0.0
  0
LINE
  5
87
100
AcDbEntity
  8
0
  6
Continuous
 62
               7
100
AcDbLine
 10
594.85919045407968
 20
450.57951476847484
 30
0.0
 11
586.81375287762319
 21
435.6375156848452
 31
0.0
  0
LINE
  5
88
100
AcDbEntity
  8
0
  6
Continuous
 62
               7
100
AcDbLine
 10
588.08642517557735
 20
448.54768518492415
 30
0.0
 11
580.04098759912074
 21
433.60568610129451
 31
0.0
  0
LINE
  5
89
100
AcDbEntity
  8
0
  6
Continuous
 62
               7
100
AcDbLine
 10
581.3136598970749
 20
446.51585560137335
 30
0.0
 11
573.26822232061829
 21
431.57385651774382
 31
0.0
  0
LINE
  5
8A
100
AcDbEntity
  8
0
  6
Continuous
 62
               7
100
AcDbLine
 10
574.54089461857245
 20
444.48402601782266
 30
0.0
 11
566.49545704211585
 21
429.54202693419302
 31
0.0
  0
LINE
  5
8B
100
AcDbEntity
  8
0
  6
Continuous
 62
               7
100
AcDbLine
 10
567.76812934007
 20
442.45219643427197
 30
0.0
 11
559.72269176361351
 21
427.51019735064233
 31
0.0
  0
LINE
  5
8C
100
AcDbEntity
  8
0
  6
Continuous
 62
               7
100
AcDbLine
 10
560.99536406156767
 20
440.42036685072128
 30
0.0
 11
552.94992648511106
 21
425.47836776709164
 31
0.0
  0
LINE
  5
8D
100
AcDbEntity
  8
0
  6
Continuous
 62
               7
100
AcDbLine
 10
554.22259878306522
 20
438.38853726717059
 30
0.0
 11
546.17716120660873
 21
423.44653818354095
 31
0.0
  0
LINE
  5
8E
100
AcDbEntity
  8
0
  6
Continuous
 62
               7
100
AcDbLine
 10
547.44983350456289
 20
436.3567076836199
 30
0.0
 11
539.40439592810628
 21
421.41470859999026
 31
0.0
  0
LINE
  5
8F
100
AcDbEntity
  8
0
  6
Continuous
 62
               7
100
AcDbLine
 10
540.67706822606056
 20
434.3248781000691
 30
0.0
 11
532.63163064960395
 21
419.38287901643957
 31
0.0
  0
LINE
  5
90
100
AcDbEntity
  8
0
  6
Continuous
 62
               7
100
AcDbLine
 10
533.90430294755822
 20
432.29304851651841
 30
0.0
 11
525.85886537110161
 21
417.35104943288877
 31
0.0
  0
LINE
  5
91
100
AcDbEntity
  8
0
  6
Continuous
 62
               7
100
AcDbLine
 10
527.13153766905577
 20
430.26121893296772
 30
0.0
 11
519.08610009259928
 21
415.31921984933808
 31
0.0
  0
LINE
  5
92
100
AcDbEntity
  8
0
  6
Continuous
 62
               7
100
AcDbLine
 10
520.35877239055344
 20
428.22938934941703
 30
0.0
 11
512.31333481409695
 21
413.28739026578739
 31
0.0
  0
LINE
  5
93
100
AcDbEntity
  8
0
  6
Continuous
 62
               7
100
AcDbLine
 10
513.58600711205111
 20
426.19755976586634
 30
0.0
 11
505.5405695355945
 21
411.25556068223671
 31
0.0
  0
LINE
  5
94
100
AcDbEntity
  8
0
  6
Continuous
 62
               7
100
AcDbLine
 10
506.81324183354866
 20
424.16573018231566
 30
0.0
 11
498.76780425709217
 21
409.2237310986859
 31
0.0
  0
LINE
  5
95
100
AcDbEntity
  8
0
  6
Continuous
 62
               7
100
AcDbLine
 10
500.04047655504633
 20
422.13390059876497
 30
0.0
 11
491.99503897858983
 21
407.19190151513521
 31
0.0
  0
LINE
  5
96
100
AcDbEntity
  8
0
  6
Continuous
 62
               7
100
AcDbLine
 10
493.26771127654399
 20
420.10207101521416
 30
0.0
 11
485.22227370008738
 21
405.16007193158453
 31
0.0
  0
LINE
  5
97
100
AcDbEntity
  8
0
  6
Continuous
 62
               7
100
AcDbLine
 10
486.49494599804154
 20
418.07024143166348
 30
0.0
 11
478.44950842158505
 21
403.12824234803384
 31
0.0
  0
LINE
  5
98
100
AcDbEntity
  8
0
  6
Continuous
 62
               7
100
AcDbLine
 10
479.72218071953921
 20
416.03841184811279
 30
0.0
 11
471.67674314308272
 21
401.09641276448315
 31
0.0
  0
LINE
  5
99
100
AcDbEntity
  8
0
  6
Continuous
 62
               7
100
AcDbLine
 10
472.94941544103688
 20
414.0065822645621
 30
0.0
 11
464.90397786458027
 21
399.06458318093246
 31
0.0
  0
LINE
  5
9A
100
AcDbEntity
  8
0
  6
Continuous
 62
               7
100
AcDbLine
 10
466.17665016253454
 20
411.97475268101141
 30
0.0
 11
458.13121258607794
 21
397.03275359738177
 31
0.0
  0
LINE
  5
9B
100
AcDbEntity
  8
0
  6
Continuous
 62
               7
100
AcDbLine
 10
459.4038848840321
 20
409.94292309746061
 30
0.0
 11
451.3584473075756
 21
395.00092401383097
 31
0.0
  0
LINE
  5
9C
100
AcDbEntity
  8
0
  6
Continuous
 62
               7
100
AcDbLine
 10
452.63111960552976
 20
407.91109351390992
 30
0.0
 11
444.58568202907327
 21
392.96909443028028
 31
0.0
  0
LINE
  5
9D
100
AcDbEntity
  8
0
  6
Continuous
 62
               7
100
AcDbLine
 10
445.85835432702743
 20
405.87926393035923
 30
0.0
 11
437.81291675057082
 21
390.93726484672948
 31
0.0
  0
LINE
  5
9E
100
AcDbEntity
  8
0
  6
Continuous
 62
               7
100
AcDbLine
 10
439.08558904852509
 20
403.84743434680854
 30
0.0
 11
431.04015147206849
 21
388.90543526317879
 31
0.0
  0
LINE
  5
9F
100
AcDbEntity
  8
0
  6
Continuous
 62
               7
100
AcDbLine
 10
432.31282377002265
 20
401.81560476325785
 30
0.0
 11
424.26738619356615
 21
386.8736056796281
 31
0.0
  0
LINE
  5
A0
100
AcDbEntity
  8
0
  6
Continuous
 62
               7
100
AcDbLine
 10
425.54005849152031
 20
399.78377517970705
 30
0.0
 11
417.49462091506382
 21
384.84177609607741
 31
0.0
  0
LINE
  5
A1
100
AcDbEntity
  8
0
  6
Continuous
 62
               7
100
AcDbLine
 10
418.76729321301798
 20
397.75194559615636
 30
0.0
 11
410.72185563656137
 21
382.80994651252672
 31
0.0
  0
LINE
  5
A2
100
AcDbEntity
  8
0
  6
Continuous
 62
               7
100
AcDbLine
 10
411.99452793451565
 20
395.72011601260567
 30
0.0
 11
403.94909035805904
 21
380.77811692897603
 31
0.0
  0
LINE
  5
A3
100
AcDbEntity
  8
0
  6
Continuous
 62
               7
100
AcDbLine
 10
405.22176265601331
 20
393.68828642905498
 30
0.0
 11
397.1763250795567
 21
378.74628734542534
 31
0.0
  0
LINE
  5
A4
100
AcDbEntity
  8
0
  6
Continuous
 62
               7
100
AcDbLine
 10
398.44899737751086
 20
391.65645684550418
 30
0.0
 11
390.40355980105431
 21
376.71445776187454
 31
0.0
  0
LINE
  5
A5
100
AcDbEntity
  8
0
  6
Continuous
 62
               7
100
AcDbLine
 10
391.67623209900853
 20
389.62462726195349
 30
0.0
 11
383.63079452255204
 21
374.6826281783238
 31
0.0
  0
LINE
  5
A6
100
AcDbEntity
  8
0
  6
Continuous
 62
               7
100
AcDbLine
 10
384.9034668205062
 20
387.5927976784028
 30
0.0
 11
381.30751389950592
 21
380.91438836383759
 31
0.0
  0
LINE
  5
A7
100
AcDbEntity
  8
0
  6
Continuous
 62
               2
100
AcDbLine
 10
377.9847762461693
 20
386.77002728717105
 30
0.0
 11
468.97827334217868
 21
414.06807641597391
 31
0.0
  0
LINE
  5
A8
100
AcDbEntity
  8
0
  6
Continuous
 62
               7
100
AcDbLine
 10
368.84711348515953
 20
370.24752386710611
 30
0.0
 11
365.39893885836329
 21
381.74143928976002
 31
0.0
  0
LINE
  5
A9
100
AcDbEntity
  8
0
  6
Continuous
 62
               7
100
AcDbLine
 10
365.39893885836329
 20
381.74143928976002
 30
0.0
 11
379.7663331366806
 21
386.05165757325517
 31
0.0
  0
LINE
  5
AA
100
AcDbEntity
  8
0
  6
Continuous
 62
               7
100
AcDbLine
 10
368.84711348515953
 20
370.24752386710611
 30
0.0
 11
383.21450776347683
 21
374.55774215060131
 31
0.0
  0
LINE
  5
AB
100
AcDbEntity
  8
0
  6
Continuous
 62
               7
100
AcDbLine
 10
435.15263807959354
 20
206.6507943513331
 30
0.0
 11
673.81902514327703
 21
278.25071047043764
 31
0.0
  0
LINE
  5
AC
100
AcDbEntity
  8
0
  6
Continuous
 62
               7
100
AcDbLine
 10
434.50610533706924
 20
208.80590349308073
 30
0.0
 11
673.81902417111655
 21
280.59977914329431
 31
0.0
  0
LINE
  5
AD
100
AcDbEntity
  8
0
  6
Continuous
 62
               7
100
AcDbLine
 10
433.85957259454506
 20
210.96101263482831
 30
0.0
 11
673.81902319895607
 21
282.9488478161511
 31
0.0
  0
LINE
  5
AE
100
AcDbEntity
  8
0
  6
Continuous
 62
               2
100
AcDbLine
 10
353.78050601863083
 20
380.44837380471142
 30
0.0
 11
365.33022549590953
 21
341.94930888044871
 31
0.0
  0
LINE
  5
AF
100
AcDbEntity
  8
0
  6
DASHED
 62
               6
100
AcDbLine
 10
449.47693017507606
 20
409.47051024691234
 30
0.0
 11
379.0766982113214
 21
388.35044065778584
 31
0.0
  0
LINE
  5
B0
100
AcDbEntity
  8
0
  6
Continuous
 62
               2
100
AcDbLine
 10
449.13211271239641
 20
410.61990178917779
 30
0.0
 11
331.55893620150005
 21
375.34794883590871
 31
0.0
  0
LINE
  5
B1
100
AcDbEntity
  8
0
  6
Continuous
 62
               2
100
AcDbLine
 10
668.21566651837497
 20
477.80661084221845
 30
0.0
 11
331.3961057330124
 21
376.76074260660994
 31
0.0
  0
LINE
  5
B2
100
AcDbEntity
  8
0
  6
DASHED
 62
               6
100
AcDbLine
 10
668.21566781458898
 20
474.67451927840943
 30
0.0
 11
474.14669242113371
 21
416.45382666037324
 31
0.0
  0
LINE
  5
B3
100
AcDbEntity
  8
0
  6
Continuous
 62
               2
100
AcDbLine
 10
352.30380144146653
 20
378.37765830069122
 30
0.0
 11
332.8328451608441
 21
371.97161118050423
 31
0.0
  0
LINE
  5
B4
100
AcDbEntity
  8
0
  6
Continuous
 62
               2
100
AcDbLine
 10
367.25819803743275
 20
351.6015067740741
 30
0.0
 11
366.71088095012811
 21
342.1114801575772
 31
0.0
  0
LINE
  5
B5
100
AcDbEntity
  8
0
  6
Continuous
 62
               4
100
AcDbLine
 10
328.13949636326055
 20
378.91585174835751
 30
0.0
 11
320.95580136915925
 21
402.8615017286952
 31
0.0
  0
LINE
  5
B6
100
AcDbEntity
  8
0
  6
Continuous
 62
               4
100
AcDbLine
 10
344.90145849968815
 20
410.04519886785386
 30
0.0
 11
352.08515349378933
 21
386.09954888751622
 31
0.0
  0
LINE
  5
B7
100
AcDbEntity
  8
0
  6
Continuous
 62
               4
100
AcDbLine
 10
321.81784502585833
 20
399.9880228730317
 30
0.0
 11
345.76350215638712
 21
407.17172001219035
 31
0.0
  0
LINE
  5
B8
100
AcDbEntity
  8
0
  6
Continuous
 62
               4
100
AcDbLine
 10
318.59955430154071
 20
327.19323466814035
 30
0.0
 11
360.46210696824971
 21
339.75200046815291
 31
0.0
  0
LINE
  5
B9
100
AcDbEntity
  8
0
  6
Continuous
 62
               4
100
AcDbLine
 10
309.97911773455041
 20
366.3683297336853
 30
0.0
 11
321.4730331572041
 21
328.05527832483932
 31
0.0
  0
LINE
  5
BA
100
AcDbEntity
  8
0
  6
Continuous
 62
               4
100
AcDbLine
 10
325.87902633013863
 20
371.13830231236182
 30
0.0
 11
307.10563887888691
 21
365.50628607698633
 31
0.0
  0
LINE
  5
BB
100
AcDbEntity
  8
0
  6
Continuous
 62
               4
100
AcDbLine
 10
335.6930160443344
 20
503.57226777129097
 30
0.0
 11
475.6930160443344
 21
503.57226777129097
 31
0.0
  0
LINE
  5
BC
100
AcDbEntity
  8
0
  6
Continuous
 62
               4
100
AcDbLine
 10
335.6930160443344
 20
487.57226777129097
 30
0.0
 11
484.93062035136847
 21
487.57226777129097
 31
0.0
  0
LINE
  5
BD
100
AcDbEntity
  8
0
  6
Continuous
 62
               4
100
AcDbLine
 10
335.6930160443344
 20
471.57226777129097
 30
0.0
 11
494.16822465840244
 21
471.57226777129097
 31
0.0
  0
LINE
  5
BE
100
AcDbEntity
  8
0
  6
Continuous
 62
               4
100
AcDbLine
 10
475.6930160443344
 20
503.57226777129097
 30
0.0
 11
528.6125378600475
 21
411.91296727422628
 31
0.0
  0
LINE
  5
BF
100
AcDbEntity
  8
0
  6
Continuous
 62
               4
100
AcDbLine
 10
310.33959926177141
 20
281.64427257166375
 30
0.0
 11
212.3357651736178
 21
281.64427257166375
 31
0.0
  0
LINE
  5
C0
100
AcDbEntity
  8
0
  6
Continuous
 62
               4
100
AcDbLine
 10
335.8984881474006
 20
196.44797628623263
 30
0.0
 11
237.89465405924705
 21
196.44797628623263
 31
0.0
  0
LINE
  5
C1
100
AcDbEntity
  8
0
  6
Continuous
 62
               4
100
AcDbLine
 10
483.68098750174806
 20
176.45740914764872
 30
0.0
 11
514.37738660798311
 21
176.45740914764872
 31
0.0
  0
LINE
  5
C2
100
AcDbEntity
  8
0
  6
Continuous
 62
               7
100
AcDbLine
 10
640.46828997523482
 20
439.20550900343585
 30
0.0
 11
636.13177350185367
 21
441.54048254951817
 31
0.0
  0
LINE
  5
C3
100
AcDbEntity
  8
0
  6
Continuous
 62
               7
100
AcDbLine
 10
647.24123392983961
 20
441.23739218981723
 30
0.0
 11
634.09994391830298
 21
448.31324782802051
 31
0.0
  0
LINE
  5
C4
100
AcDbEntity
  8
0
  6
Continuous
 62
               7
100
AcDbLine
 10
654.01417788444439
 20
443.26927537619872
 30
0.0
 11
639.07178460759383
 21
451.3149252038362
 31
0.0
  0
LINE
  5
C5
100
AcDbEntity
  8
0
  6
Continuous
 62
               7
100
AcDbLine
 10
649.04131268209937
 20
466.83415143688057
 30
0.0
 11
640.99587510564299
 21
451.89215235325094
 31
0.0
  0
LINE
  5
C6
100
AcDbEntity
  8
0
  6
Continuous
 62
               7
100
AcDbLine
 10
642.26854740359715
 20
464.80232185332989
 30
0.0
 11
634.22310982714032
 21
449.86032276970025
 31
0.0
  0
LINE
  5
C7
100
AcDbEntity
  8
0
  6
Continuous
 62
               7
100
AcDbLine
 10
635.49578212509448
 20
462.77049226977908
 30
0.0
 11
631.81407322253506
 21
455.93281681391375
 31
0.0
  0
LINE
  5
C8
100
AcDbEntity
  8
0
  6
Continuous
 62
               7
100
AcDbLine
 10
660.78658581074205
 20
445.30099775408803
 30
0.0
 11
645.84419253389137
 21
453.34664758172551
 31
0.0
  0
LINE
  5
C9
100
AcDbEntity
  8
0
  6
Continuous
 62
               7
100
AcDbLine
 10
667.55952976534684
 20
447.33288094046941
 30
0.0
 11
652.61713648849627
 21
455.378530768107
 31
0.0
  0
LINE
  5
CA
100
AcDbEntity
  8
0
  6
Continuous
 62
               7
100
AcDbLine
 10
668.21567692597807
 20
452.65831986181956
 30
0.0
 11
659.39008044310128
 21
457.41041395448838
 31
0.0
  0
LINE
  5
CB
100
AcDbEntity
  8
0
  6
Continuous
 62
               7
100
AcDbLine
 10
668.21566941593926
 20
470.80511472245882
 30
0.0
 11
661.31417094115022
 21
457.98764110390312
 31
0.0
  0
LINE
  5
CC
100
AcDbEntity
  8
0
  6
Continuous
 62
               7
100
AcDbLine
 10
662.5868432391045
 20
470.89781060398207
 30
0.0
 11
654.54140566264766
 21
455.95581152035243
 31
0.0
  0
LINE
  5
CD
100
AcDbEntity
  8
0
  6
Continuous
 62
               7
100
AcDbLine
 10
655.81407796060194
 20
468.86598102043126
 30
0.0
 11
647.76864038414533
 21
453.92398193680174
 31
0.0
  0
LINE
  5
CE
100
AcDbEntity
  8
0
  6
Continuous
 62
               7
100
AcDbLine
 10
668.21567457602168
 20
458.33660946373232
 30
0.0
 11
666.16248836939872
 21
459.44213633237769
 31
0.0
  0
LINE
  5
CF
100
AcDbEntity
  8
0
  6
Continuous
 62
               7
100
AcDbLine
 10
668.21567378062286
 20
460.2585622843701
 30
0.0
 11
668.08693621965267
 21
460.0194706874538
 31
0.0
  0
LINE
  5
D0
100
AcDbEntity
  8
0
  6
Continuous
 62
               4
100
AcDbLine
 10
367.05431280930765
 20
336.20235116912181
 30
0.0
 11
372.42937428607564
 21
318.2854795798952
 31
0.0
  0
LINE
  5
D1
100
AcDbEntity
  8
0
  6
Continuous
 62
               4
100
AcDbLine
 10
371.5673306293765
 20
321.15895843555865
 30
0.0
 11
395.51298775990534
 21
328.34265557471724
 31
0.0
  0
LINE
  5
D2
100
AcDbEntity
  8
0
  6
Continuous
 62
               4
100
AcDbLine
 10
359.7860768269673
 20
360.42980444358932
 30
0.0
 11
310.33959926177141
 21
281.64427257166375
 31
0.0
  0
LINE
  5
D3
100
AcDbEntity
  8
0
  6
Continuous
 62
               4
100
AcDbLine
 10
359.7860768269673
 20
360.42980444358932
 30
0.0
 11
356.70789553703634
 21
351.9725708565162
 31
0.0
  0
LINE
  5
D4
100
AcDbEntity
  8
0
  6
Continuous
 62
               4
100
AcDbLine
 10
359.7860768269673
 20
360.42980444358932
 30
0.0
 11
354.00098833978853
 21
353.53540445551852
 31
0.0
  0
LINE
  5
D5
100
AcDbEntity
  8
0
  6
Continuous
 62
               4
100
AcDbLine
 10
403.87482073569697
 20
300.46987898874511
 30
0.0
 11
335.8984881474006
 21
196.44797628623263
 31
0.0
  0
LINE
  5
D6
100
AcDbEntity
  8
0
  6
Continuous
 62
               4
100
AcDbLine
 10
403.87482073569697
 20
300.46987898874511
 30
0.0
 11
400.79663944576589
 21
292.01264540167205
 31
0.0
  0
LINE
  5
D7
100
AcDbEntity
  8
0
  6
Continuous
 62
               4
100
AcDbLine
 10
403.87482073569697
 20
300.46987898874511
 30
0.0
 11
398.08973224851809
 21
293.57547900067431
 31
0.0
  0
LINE
  5
D8
100
AcDbEntity
  8
0
  6
Continuous
 62
               4
100
AcDbLine
 10
457.67616155059113
 20
221.49908893703821
 30
0.0
 11
483.68098750174806
 21
176.45740914764872
 31
0.0
  0
LINE
  5
D9
100
AcDbEntity
  8
0
  6
Continuous
 62
               4
100
AcDbLine
 10
457.67616155059113
 20
221.49908893703821
 30
0.0
 11
463.46125003777001
 21
214.60468894896741
 31
0.0
  0
LINE
  5
DA
100
AcDbEntity
  8
0
  6
Continuous
 62
               4
100
AcDbLine
 10
457.67616155059113
 20
221.49908893703821
 30
0.0
 11
460.7543428405221
 21
213.04185534996515
 31
0.0
  0
LINE
  5
DB
100
AcDbEntity
  8
0
  6
Continuous
 62
               6
100
AcDbLine
 10
424.97573379911898
 20
270.15467706149565
 30
0.0
 11
426.41247322695074
 21
265.36554563538982
 31
0.0
  0
LINE
  5
DC
100
AcDbEntity
  8
0
  6
Continuous
 62
               6
100
AcDbLine
 10
463.28878520796513
 20
281.64859248414945
 30
0.0
 11
464.72552463579689
 21
276.85946105804362
 31
0.0
  0
LINE
  5
DD
100
AcDbEntity
  8
0
  6
Continuous
 62
               4
100
AcDbLine
 10
623.197823721286
 20
434.02436912725125
 30
0.0
 11
614.86473503986213
 21
461.80133139866462
 31
0.0
  0
LINE
  5
DE
100
AcDbEntity
  8
0
  6
Continuous
 62
               4
100
AcDbLine
 10
600.9762539041551
 20
452.4146338034974
 30
0.0
 11
604.42442853095122
 21
440.9207183808436
 31
0.0
  0
LINE
  5
DF
100
AcDbEntity
  8
0
  6
Continuous
 62
               4
100
AcDbLine
 10
604.42442853095122
 20
440.9207183808436
 30
0.0
 11
607.87260315774768
 21
429.4268029581898
 31
0.0
  0
LINE
  5
E0
100
AcDbEntity
  8
0
  6
Continuous
 62
               4
100
AcDbLine
 10
600.97626400152797
 20
452.41463683270922
 30
0.0
 11
599.53952457369621
 21
457.20376825881499
 31
0.0
  0
LINE
  5
E1
100
AcDbEntity
  8
0
  6
Continuous
 62
               4
100
AcDbLine
 10
599.53952457369621
 20
457.20376825881499
 30
0.0
 11
597.8441742711118
 21
462.85493593409637
 31
0.0
  0
LINE
  5
E2
100
AcDbEntity
  8
0
  6
Continuous
 62
               2
100
AcDbLine
 10
353.78050601863083
 20
380.44837380471142
 30
0.0
 11
331.9899580298495
 21
373.91120940807701
 31
0.0
  0
LINE
  5
E3
100
AcDbEntity
  8
0
  6
DIVIDE
 62
               4
100
AcDbLine
 10
453.23160921314286
 20
221.20975388669473
 30
0.0
 11
431.20160465305639
 21
214.60075251866874
 31
0.0
  0
LINE
  5
E4
100
AcDbEntity
  8
0
  6
DIVIDE
 62
               4
100
AcDbLine
 10
453.23160921314286
 20
221.20975388669473
 30
0.0
 11
447.48465150181596
 21
240.36627959111775
 31
0.0
  0
LINE
  5
E5
100
AcDbEntity
  8
0
  6
DIVIDE
 62
               4
100
AcDbLine
 10
431.20160465305639
 20
214.60075251866874
 30
0.0
 11
425.45464694172949
 21
233.75727822309182
 31
0.0
  0
LINE
  5
E6
100
AcDbEntity
  8
0
  6
DIVIDE
 62
               4
100
AcDbLine
 10
426.0923180041151
 20
233.37175909995824
 30
0.0
 11
431.53684385288375
 21
215.22333960406252
 31
0.0
  0
LINE
  5
E7
100
AcDbEntity
  8
0
  6
DIVIDE
 62
               4
100
AcDbLine
 10
431.53684385288375
 20
215.22333960406252
 30
0.0
 11
452.60902212774909
 21
221.54499308652214
 31
0.0
  0
LINE
  5
E8
100
AcDbEntity
  8
0
  6
DIVIDE
 62
               4
100
AcDbLine
 10
452.60902212774909
 20
221.54499308652214
 30
0.0
 11
447.16449627898044
 21
239.69341258241781
 31
0.0
  0
LINE
  5
E9
100
AcDbEntity
  8
0
  6
DIVIDE
 62
               4
100
AcDbLine
 10
425.45464694172949
 20
233.75727822309182
 30
0.0
 11
430.38745231061841
 21
234.71510450831295
 31
0.0
  0
LINE
  5
EA
100
AcDbEntity
  8
0
  6
DIVIDE
 62
               4
100
AcDbLine
 10
426.0923180041151
 20
233.37175909995824
 30
0.0
 11
430.48275958817396
 21
234.22427202890174
 31
0.0
  0
LINE
  5
EB
100
AcDbEntity
  8
0
  6
DIVIDE
 62
               4
100
AcDbLine
 10
447.48465150181596
 20
240.36627959111775
 30
0.0
 11
442.83919401849334
 21
238.45062702067531
 31
0.0
  0
LINE
  5
EC
100
AcDbEntity
  8
0
  6
DIVIDE
 62
               4
100
AcDbLine
 10
447.16449627898044
 20
239.69341258241781
 30
0.0
 11
443.02980857360456
 21
237.98838672453081
 31
0.0
  0
LINE
  5
ED
100
AcDbEntity
  8
0
  6
DIVIDE
 62
               4
100
AcDbLine
 10
443.02980857360456
 20
237.98838672453081
 30
0.0
 11
442.83919401849334
 21
238.45062702067531
 31
0.0
  0
LINE
  5
EE
100
AcDbEntity
  8
0
  6
DIVIDE
 62
               4
100
AcDbLine
 10
430.48275958817396
 20
234.22427202890174
 30
0.0
 11
430.38745231061841
 21
234.71510450831295
 31
0.0
  0
LINE
  5
EF
100
AcDbEntity
  8
0
  6
Continuous
 62
               4
100
AcDbLine
 10
436.50011392625731
 20
364.27611179458864
 30
0.0
 11
467.77635991867942
 21
332.9998658021666
 31
0.0
  0
LINE
  5
F0
100
AcDbEntity
  8
0
  6
Continuous
 62
               4
100
AcDbLine
 10
436.50011392625731
 20
364.27611179458864
 30
0.0
 11
443.87248232485831
 21
359.11392386742921
 31
0.0
  0
LINE
  5
F1
100
AcDbEntity
  8
0
  6
Continuous
 62
               4
100
AcDbLine
 10
436.50011392625731
 20
364.27611179458864
 30
0.0
 11
441.66230185341681
 21
356.9037433959877
 31
0.0
  0
LINE
  5
F2
100
AcDbEntity
  8
0
  6
Continuous
 62
               4
100
AcDbLine
 10
467.77635991867942
 20
332.9998658021666
 30
0.0
 11
534.26898683352954
 21
332.9998658021666
 31
0.0
  0
LINE
  5
F3
100
AcDbEntity
  8
0
  6
DASHED
 62
               6
100
AcDbLine
 10
449.47693017507606
 20
409.47051024691234
 30
0.0
 11
474.14669242113371
 21
416.45382666037324
 31
0.0
  0
LINE
  5
F4
100
AcDbEntity
  8
0
  6
Continuous
 62
               7
100
AcDbLine
 10
405.4529875544589
 20
357.92160554316081
 30
0.0
 11
395.10846367407134
 21
392.40335181112255
 31
0.0
  0
LINE
  5
F5
100
AcDbEntity
  8
0
  6
Continuous
 62
               7
100
AcDbLine
 10
391.99552824710264
 20
394.07954781025967
 30
0.0
 11
392.13920218988579
 21
393.60063466764905
 31
0.0
  0
LINE
  5
F6
100
AcDbEntity
  8
0
  6
Continuous
 62
               7
100
AcDbLine
 10
410.24211898056467
 20
359.3583449709925
 30
0.0
 11
399.897595100177
 21
393.84009123895419
 31
0.0
  0
LINE
  5
F7
100
AcDbEntity
  8
0
  6
Continuous
 62
               7
100
AcDbLine
 10
401.57379109931423
 20
396.95302666592295
 30
0.0
 11
401.71746504209727
 21
396.47411352331233
 31
0.0
  0
LINE
  5
F8
100
AcDbEntity
  8
0
  6
Continuous
 62
               7
100
AcDbLine
 10
391.99552824710264
 20
394.07954781025967
 30
0.0
 11
401.57379109931423
 21
396.95302666592295
 31
0.0
  0
LINE
  5
F9
100
AcDbEntity
  8
0
  6
Continuous
 62
               7
100
AcDbLine
 10
395.10846367407134
 20
392.40335181112255
 30
0.0
 11
399.897595100177
 21
393.84009123895419
 31
0.0
  0
LINE
  5
FA
100
AcDbEntity
  8
0
  6
Continuous
 62
               7
100
AcDbLine
 10
392.13920218988579
 20
393.60063466764905
 30
0.0
 11
395.10846367407134
 21
392.40335181112255
 31
0.0
  0
LINE
  5
FB
100
AcDbEntity
  8
0
  6
Continuous
 62
               7
100
AcDbLine
 10
399.897595100177
 20
393.84009123895419
 30
0.0
 11
401.71746504209739
 21
396.47411352331233
 31
0.0
  0
LINE
  5
FC
100
AcDbEntity
  8
0
  6
Continuous
 62
               7
100
AcDbLine
 10
392.13920218988579
 20
393.60063466764905
 30
0.0
 11
401.71746504209739
 21
396.47411352331221
 31
0.0
  0
LINE
  5
FD
100
AcDbEntity
  8
0
  6
Continuous
 62
               7
100
AcDbLine
 10
405.4529875544589
 20
357.92160554316081
 30
0.0
 11
408.27857509586136
 21
357.20323582924493
 31
0.0
  0
LINE
  5
FE
100
AcDbEntity
  8
0
  6
Continuous
 62
               7
100
AcDbLine
 10
410.24211898056467
 20
359.3583449709925
 30
0.0
 11
408.27857509586136
 21
357.20323582924493
 31
0.0
  0
LINE
  5
FF
100
AcDbEntity
  8
0
  6
Continuous
 62
               7
100
AcDbLine
 10
397.11989887303559
 20
385.6985678145744
 30
0.0
 11
401.33433452800864
 21
389.0509598128483
 31
0.0
  0
LINE
  5
100
100
AcDbEntity
  8
0
  6
Continuous
 62
               7
100
AcDbLine
 10
397.69459464416821
 20
383.78291524413203
 30
0.0
 11
401.90903029914136
 21
387.13530724240604
 31
0.0
  0
LINE
  5
101
100
AcDbEntity
  8
0
  6
Continuous
 62
               7
100
AcDbLine
 10
398.26929041530082
 20
381.86726267368977
 30
0.0
 11
402.48372607027397
 21
385.21965467196378
 31
0.0
  0
LINE
  5
102
100
AcDbEntity
  8
0
  6
Continuous
 62
               7
100
AcDbLine
 10
398.84398618643343
 20
379.95161010324745
 30
0.0
 11
403.05842184140658
 21
383.30400210152141
 31
0.0
  0
LINE
  5
103
100
AcDbEntity
  8
0
  6
Continuous
 62
               7
100
AcDbLine
 10
399.41868195756615
 20
378.03595753280513
 30
0.0
 11
403.63311761253931
 21
381.38834953107914
 31
0.0
  0
LINE
  5
104
100
AcDbEntity
  8
0
  6
Continuous
 62
               7
100
AcDbLine
 10
399.99337772869865
 20
376.12030496236281
 30
0.0
 11
404.20781338367181
 21
379.47269696063682
 31
0.0
  0
LINE
  5
105
100
AcDbEntity
  8
0
  6
Continuous
 62
               7
100
AcDbLine
 10
400.56807349983137
 20
374.20465239192055
 30
0.0
 11
404.78250915480453
 21
377.55704439019445
 31
0.0
  0
LINE
  5
106
100
AcDbEntity
  8
0
  6
Continuous
 62
               7
100
AcDbLine
 10
401.14276927096398
 20
372.28899982147823
 30
0.0
 11
405.35720492593714
 21
375.64139181975224
 31
0.0
  0
LINE
  5
107
100
AcDbEntity
  8
0
  6
Continuous
 62
               7
100
AcDbLine
 10
401.71746504209671
 20
370.37334725103591
 30
0.0
 11
405.93190069706975
 21
373.72573924930981
 31
0.0
  0
LINE
  5
108
100
AcDbEntity
  8
0
  6
Continuous
 62
               7
100
AcDbLine
 10
402.2921608132292
 20
368.45769468059365
 30
0.0
 11
406.50659646820236
 21
371.81008667886761
 31
0.0
  0
LINE
  5
109
100
AcDbEntity
  8
0
  6
Continuous
 62
               7
100
AcDbLine
 10
402.86685658436193
 20
366.54204211015133
 30
0.0
 11
407.08129223933508
 21
369.89443410842523
 31
0.0
  0
LINE
  5
10A
100
AcDbEntity
  8
0
  6
Continuous
 62
               7
100
AcDbLine
 10
403.44155235549454
 20
364.62638953970901
 30
0.0
 11
405.9702137484785
 21
366.63782473867343
 31
0.0
  0
LINE
  5
10B
100
AcDbEntity
  8
0
  6
Continuous
 62
               7
100
AcDbLine
 10
409.61953189517101
 20
359.69358417081992
 30
0.0
 11
407.23454444497042
 21
367.64354233815561
 31
0.0
  0
LINE
  5
10C
100
AcDbEntity
  8
0
  6
Continuous
 62
               7
100
AcDbLine
 10
405.9702137484785
 20
366.63782473867332
 30
0.0
 11
406.67421606811615
 21
367.94525761800031
 31
0.0
  0
LINE
  5
10D
100
AcDbEntity
  8
0
  6
Continuous
 62
               7
100
AcDbLine
 10
407.23454444497042
 20
367.64354233815561
 30
0.0
 11
406.67421606811615
 21
367.94525761800031
 31
0.0
  0
LINE
  5
10E
100
AcDbEntity
  8
0
  6
Continuous
 62
               7
100
AcDbLine
 10
407.23454444497042
 20
367.64354233815561
 30
0.0
 11
407.65598801046769
 21
367.97878153798291
 31
0.0
  0
LINE
  5
10F
100
AcDbEntity
  8
0
  6
Continuous
 62
               7
100
AcDbLine
 10
410.24211898056467
 20
359.3583449709925
 30
0.0
 11
409.61953189517101
 21
359.69358417081992
 31
0.0
  0
LINE
  5
110
100
AcDbEntity
  8
0
  6
Continuous
 62
               7
100
AcDbLine
 10
425.02363623133715
 20
361.49402553973391
 30
0.0
 11
414.67911235094959
 21
395.97577180769554
 31
0.0
  0
LINE
  5
111
100
AcDbEntity
  8
0
  6
Continuous
 62
               7
100
AcDbLine
 10
411.56617692398083
 20
397.65196780683266
 30
0.0
 11
411.70985086676399
 21
397.17305466422204
 31
0.0
  0
LINE
  5
112
100
AcDbEntity
  8
0
  6
Continuous
 62
               7
100
AcDbLine
 10
429.81276765744292
 20
362.93076496756555
 30
0.0
 11
419.46824377705536
 21
397.41251123552718
 31
0.0
  0
LINE
  5
113
100
AcDbEntity
  8
0
  6
Continuous
 62
               7
100
AcDbLine
 10
421.14443977619237
 20
400.52544666249594
 30
0.0
 11
421.28811371897552
 21
400.04653351988532
 31
0.0
  0
LINE
  5
114
100
AcDbEntity
  8
0
  6
Continuous
 62
               7
100
AcDbLine
 10
411.56617692398083
 20
397.65196780683266
 30
0.0
 11
421.14443977619237
 21
400.52544666249594
 31
0.0
  0
LINE
  5
115
100
AcDbEntity
  8
0
  6
Continuous
 62
               7
100
AcDbLine
 10
414.67911235094959
 20
395.97577180769554
 30
0.0
 11
419.46824377705536
 21
397.41251123552718
 31
0.0
  0
LINE
  5
116
100
AcDbEntity
  8
0
  6
Continuous
 62
               7
100
AcDbLine
 10
411.7098508667641
 20
397.17305466422204
 30
0.0
 11
414.67911235094959
 21
395.97577180769554
 31
0.0
  0
LINE
  5
117
100
AcDbEntity
  8
0
  6
Continuous
 62
               7
100
AcDbLine
 10
419.46824377705536
 20
397.41251123552718
 30
0.0
 11
421.28811371897552
 21
400.04653351988532
 31
0.0
  0
LINE
  5
118
100
AcDbEntity
  8
0
  6
Continuous
 62
               7
100
AcDbLine
 10
411.70985086676399
 20
397.17305466422204
 30
0.0
 11
421.28811371897552
 21
400.0465335198852
 31
0.0
  0
LINE
  5
119
100
AcDbEntity
  8
0
  6
Continuous
 62
               7
100
AcDbLine
 10
425.02363623133715
 20
361.49402553973391
 30
0.0
 11
427.84922377273949
 21
360.77565582581792
 31
0.0
  0
LINE
  5
11A
100
AcDbEntity
  8
0
  6
Continuous
 62
               7
100
AcDbLine
 10
429.81276765744292
 20
362.93076496756555
 30
0.0
 11
427.84922377273949
 21
360.77565582581792
 31
0.0
  0
LINE
  5
11B
100
AcDbEntity
  8
0
  6
Continuous
 62
               7
100
AcDbLine
 10
416.69054754991384
 20
389.27098781114751
 30
0.0
 11
420.90498320488689
 21
392.62337980942141
 31
0.0
  0
LINE
  5
11C
100
AcDbEntity
  8
0
  6
Continuous
 62
               7
100
AcDbLine
 10
417.26524332104646
 20
387.35533524070513
 30
0.0
 11
421.47967897601961
 21
390.70772723897903
 31
0.0
  0
LINE
  5
11D
100
AcDbEntity
  8
0
  6
Continuous
 62
               7
100
AcDbLine
 10
417.83993909217918
 20
385.43968267026275
 30
0.0
 11
422.05437474715222
 21
388.79207466853677
 31
0.0
  0
LINE
  5
11E
100
AcDbEntity
  8
0
  6
Continuous
 62
               7
100
AcDbLine
 10
418.41463486331168
 20
383.52403009982049
 30
0.0
 11
422.62907051828483
 21
386.87642209809439
 31
0.0
  0
LINE
  5
11F
100
AcDbEntity
  8
0
  6
Continuous
 62
               7
100
AcDbLine
 10
418.9893306344444
 20
381.60837752937823
 30
0.0
 11
423.20376628941756
 21
384.96076952765213
 31
0.0
  0
LINE
  5
120
100
AcDbEntity
  8
0
  6
Continuous
 62
               7
100
AcDbLine
 10
419.56402640557701
 20
379.69272495893591
 30
0.0
 11
423.77846206055005
 21
383.04511695720987
 31
0.0
  0
LINE
  5
121
100
AcDbEntity
  8
0
  6
Continuous
 62
               7
100
AcDbLine
 10
420.13872217670962
 20
377.77707238849365
 30
0.0
 11
424.35315783168278
 21
381.12946438676749
 31
0.0
  0
LINE
  5
122
100
AcDbEntity
  8
0
  6
Continuous
 62
               7
100
AcDbLine
 10
420.71341794784223
 20
375.86141981805133
 30
0.0
 11
424.92785360281539
 21
379.21381181632523
 31
0.0
  0
LINE
  5
123
100
AcDbEntity
  8
0
  6
Continuous
 62
               7
100
AcDbLine
 10
421.28811371897484
 20
373.9457672476089
 30
0.0
 11
425.502549373948
 21
377.29815924588291
 31
0.0
  0
LINE
  5
124
100
AcDbEntity
  8
0
  6
Continuous
 62
               7
100
AcDbLine
 10
421.86280949010745
 20
372.03011467716664
 30
0.0
 11
426.07724514508061
 21
375.38250667544065
 31
0.0
  0
LINE
  5
125
100
AcDbEntity
  8
0
  6
Continuous
 62
               7
100
AcDbLine
 10
422.43750526124018
 20
370.11446210672432
 30
0.0
 11
426.65194091621322
 21
373.46685410499833
 31
0.0
  0
LINE
  5
126
100
AcDbEntity
  8
0
  6
Continuous
 62
               7
100
AcDbLine
 10
423.01220103237279
 20
368.198809536282
 30
0.0
 11
425.54086242535675
 21
370.21024473524642
 31
0.0
  0
LINE
  5
127
100
AcDbEntity
  8
0
  6
Continuous
 62
               7
100
AcDbLine
 10
429.19018057204914
 20
363.26600416739291
 30
0.0
 11
426.80519312184867
 21
371.2159623347286
 31
0.0
  0
LINE
  5
128
100
AcDbEntity
  8
0
  6
Continuous
 62
               7
100
AcDbLine
 10
425.54086242535675
 20
370.21024473524642
 30
0.0
 11
426.24486474499429
 21
371.5176776145733
 31
0.0
  0
LINE
  5
129
100
AcDbEntity
  8
0
  6
Continuous
 62
               7
100
AcDbLine
 10
426.80519312184867
 20
371.2159623347286
 30
0.0
 11
426.24486474499429
 21
371.5176776145733
 31
0.0
  0
LINE
  5
12A
100
AcDbEntity
  8
0
  6
Continuous
 62
               7
100
AcDbLine
 10
426.80519312184867
 20
371.2159623347286
 30
0.0
 11
427.22663668734594
 21
371.5512015345559
 31
0.0
  0
LINE
  5
12B
100
AcDbEntity
  8
0
  6
Continuous
 62
               7
100
AcDbLine
 10
429.81276765744292
 20
362.93076496756555
 30
0.0
 11
429.19018057204914
 21
363.26600416739291
 31
0.0
  0
LINE
  5
12C
100
AcDbEntity
  8
0
  6
Continuous
 62
               7
100
AcDbLine
 10
435.01150964925205
 20
233.6388242471038
 30
0.0
 11
440.32744553222892
 21
215.91903797051202
 31
0.0
  0
LINE
  5
12D
100
AcDbEntity
  8
0
  6
Continuous
 62
               7
100
AcDbLine
 10
438.50757559030853
 20
213.28501568615394
 30
0.0
 11
437.93287981917592
 21
215.20066825659615
 31
0.0
  0
LINE
  5
12E
100
AcDbEntity
  8
0
  6
Continuous
 62
               7
100
AcDbLine
 10
439.80064107535793
 20
235.07556367493544
 30
0.0
 11
445.1165769583348
 21
217.35577739834361
 31
0.0
  0
LINE
  5
12F
100
AcDbEntity
  8
0
  6
Continuous
 62
               7
100
AcDbLine
 10
448.0858384425203
 20
216.15849454181705
 30
0.0
 11
447.51114267138769
 21
218.07414711225971
 31
0.0
  0
LINE
  5
130
100
AcDbEntity
  8
0
  6
Continuous
 62
               7
100
AcDbLine
 10
439.80064107535793
 20
235.07556367493544
 30
0.0
 11
436.97505353395547
 21
235.79393338885131
 31
0.0
  0
LINE
  5
131
100
AcDbEntity
  8
0
  6
Continuous
 62
               7
100
AcDbLine
 10
435.01150964925205
 20
233.6388242471038
 30
0.0
 11
436.97505353395547
 21
235.79393338885131
 31
0.0
  0
LINE
  5
132
100
AcDbEntity
  8
0
  6
Continuous
 62
               7
100
AcDbLine
 10
447.51114267138769
 20
218.07414711225971
 30
0.0
 11
437.93287981917592
 21
215.20066825659615
 31
0.0
  0
LINE
  5
133
100
AcDbEntity
  8
0
  6
Continuous
 62
               7
100
AcDbLine
 10
439.17805398996359
 20
219.75034311139694
 30
0.0
 11
443.39248964493686
 21
223.1027351096709
 31
0.0
  0
LINE
  5
134
100
AcDbEntity
  8
0
  6
Continuous
 62
               7
100
AcDbLine
 10
442.81779387380425
 20
225.01838768011322
 30
0.0
 11
438.60335821883086
 21
221.66599568183932
 31
0.0
  0
LINE
  5
135
100
AcDbEntity
  8
0
  6
Continuous
 62
               7
100
AcDbLine
 10
438.02866244769837
 20
223.58164825228164
 30
0.0
 11
442.24309810267152
 21
226.93404025055554
 31
0.0
  0
LINE
  5
136
100
AcDbEntity
  8
0
  6
Continuous
 62
               7
100
AcDbLine
 10
441.66840233153891
 20
228.8496928209978
 30
0.0
 11
437.45396667656576
 21
225.49730082272401
 31
0.0
  0
LINE
  5
137
100
AcDbEntity
  8
0
  6
Continuous
 62
               7
100
AcDbLine
 10
441.0937065604063
 20
230.76534539144023
 30
0.0
 11
438.56504516742223
 21
228.75391019247593
 31
0.0
  0
LINE
  5
138
100
AcDbEntity
  8
0
  6
Continuous
 62
               7
100
AcDbLine
 10
435.63409673464582
 20
233.30358504727633
 30
0.0
 11
437.30071447093042
 21
227.74819259299375
 31
0.0
  0
LINE
  5
139
100
AcDbEntity
  8
0
  6
Continuous
 62
               7
100
AcDbLine
 10
435.01150964925205
 20
233.6388242471038
 30
0.0
 11
435.63409673464582
 21
233.30358504727633
 31
0.0
  0
LINE
  5
13A
100
AcDbEntity
  8
0
  6
Continuous
 62
               7
100
AcDbLine
 10
437.3007144709303
 20
227.7481925929938
 30
0.0
 11
437.86104284778469
 21
227.44647731314905
 31
0.0
  0
LINE
  5
13B
100
AcDbEntity
  8
0
  6
Continuous
 62
               7
100
AcDbLine
 10
438.56504516742223
 20
228.75391019247593
 30
0.0
 11
437.86104284778469
 21
227.44647731314905
 31
0.0
  0
LINE
  5
13C
100
AcDbEntity
  8
0
  6
Continuous
 62
               7
100
AcDbLine
 10
437.30071447093042
 20
227.74819259299375
 30
0.0
 11
436.87927090543303
 21
227.41295339316633
 31
0.0
  0
LINE
  5
13D
100
AcDbEntity
  8
0
  6
Continuous
 62
               4
100
AcDbLine
 10
373.35642539741281
 20
376.268334118844
 30
0.0
 11
367.57133691023392
 21
383.16273410691485
 31
0.0
  0
LINE
  5
13E
100
AcDbEntity
  8
0
  6
Continuous
 62
               4
100
AcDbLine
 10
373.35642539741281
 20
376.268334118844
 30
0.0
 11
370.27824410748184
 21
384.72556770591723
 31
0.0
  0
LINE
  5
13F
100
AcDbEntity
  8
0
  6
Continuous
 62
               4
100
AcDbLine
 10
714.78679656440374
 20
21.213203435596483
 30
0.0
 11
714.78679656440374
 21
41.213203435596483
 31
0.0
  0
LINE
  5
140
100
AcDbEntity
  8
0
  6
Continuous
 62
               4
100
AcDbLine
 10
864.78679656440374
 20
21.213203435596483
 30
0.0
 11
714.78679656440374
 21
21.213203435596483
 31
0.0
  0
LINE
  5
141
100
AcDbEntity
  8
0
  6
Continuous
 62
               4
100
AcDbLine
 10
864.78679656440374
 20
41.213203435596483
 30
0.0
 11
864.78679656440374
 21
21.213203435596483
 31
0.0
  0
LINE
  5
142
100
AcDbEntity
  8
0
  6
Continuous
 62
               4
100
AcDbLine
 10
864.78679656440374
 20
41.213203435596483
 30
0.0
 11
714.78679656440374
 21
41.213203435596483
 31
0.0
  0
LINE
  5
143
100
AcDbEntity
  8
0
  6
Continuous
 62
               4
100
AcDbLine
 10
14.142135623730949
 20
595.85786437626905
 30
0.0
 11
14.142135623730949
 21
615.85786437626905
 31
0.0
  0
LINE
  5
144
100
AcDbEntity
  8
0
  6
Continuous
 62
               4
100
AcDbLine
 10
164.14213562373095
 20
595.85786437626905
 30
0.0
 11
14.142135623730949
 21
595.85786437626905
 31
0.0
  0
LINE
  5
145
100
AcDbEntity
  8
0
  6
Continuous
 62
               4
100
AcDbLine
 10
164.14213562373095
 20
615.85786437626905
 30
0.0
 11
164.14213562373095
 21
595.85786437626905
 31
0.0
  0
LINE
  5
146
100
AcDbEntity
  8
0
  6
Continuous
 62
               4
100
AcDbLine
 10
164.14213562373095
 20
615.85786437626905
 30
0.0
 11
14.142135623730949
 21
615.85786437626905
 31
0.0
  0
LINE
  5
147
100
AcDbEntity
  8
0
  6
Continuous
 62
               4
100
AcDbLine
 10
343.21146966367024
 20
428.48092904160103
 30
0.0
 11
302.46565609040169
 21
428.48092904160103
 31
0.0
  0
LINE
  5
148
100
AcDbEntity
  8
0
  6
Continuous
 62
               4
100
AcDbLine
 10
343.21146966367024
 20
428.48092904160103
 30
0.0
 11
373.35642539741281
 21
376.268334118844
 31
0.0
  0
CIRCLE
  5
149
100
AcDbEntity
  8
0
  6
Continuous
 62
               4
100
AcDbCircle
 10
321.81784502585833
 20
399.9880228730317
 30
0.0
 40
1.5
  0
CIRCLE
  5
14A
100
AcDbEntity
  8
0
  6
Continuous
 62
               4
100
AcDbCircle
 10
345.76350215638712
 20
407.17172001219035
 30
0.0
 40
1.5
  0
CIRCLE
  5
14B
100
AcDbEntity
  8
0
  6
Continuous
 62
               4
100
AcDbCircle
 10
309.97911773455041
 20
366.3683297336853
 30
0.0
 40
1.5
  0
CIRCLE
  5
14C
100
AcDbEntity
  8
0
  6
Continuous
 62
               4
100
AcDbCircle
 10
321.4730331572041
 20
328.05527832483932
 30
0.0
 40
1.5
  0
CIRCLE
  5
14D
100
AcDbEntity
  8
0
  6
Continuous
 62
               4
100
AcDbCircle
 10
528.6125378600475
 20
411.91296727422628
 30
0.0
 40
1.5
  0
CIRCLE
  5
14E
100
AcDbEntity
  8
0
  6
Continuous
 62
               4
100
AcDbCircle
 10
522.44715667763433
 20
422.59172073019499
 30
0.0
 40
1.5
  0
CIRCLE
  5
14F
100
AcDbEntity
  8
0
  6
Continuous
 62
               4
100
AcDbCircle
 10
518.33690255602562
 20
429.71088970084077
 30
0.0
 40
1.5
  0
CIRCLE
  5
150
100
AcDbEntity
  8
0
  6
Continuous
 62
               4
100
AcDbCircle
 10
516.79555726042224
 20
432.380578064833
 30
0.0
 40
1.5
  0
CIRCLE
  5
151
100
AcDbEntity
  8
0
  6
Continuous
 62
               4
100
AcDbCircle
 10
371.5673306293765
 20
321.15895843555865
 30
0.0
 40
1.5
  0
CIRCLE
  5
152
100
AcDbEntity
  8
0
  6
Continuous
 62
               4
100
AcDbCircle
 10
395.51298775990534
 20
328.34265557471724
 30
0.0
 40
1.5
  0
CIRCLE
  5
153
100
AcDbEntity
  8
0
  6
Continuous
 62
               4
100
AcDbCircle
 10
623.197823721286
 20
434.02436912725125
 30
0.0
 40
1.5
  0
CIRCLE
  5
154
100
AcDbEntity
  8
0
  6
Continuous
 62
               4
100
AcDbCircle
 10
614.86473503986213
 20
461.80133139866462
 30
0.0
 40
1.5
  0
CIRCLE
  5
155
100
AcDbEntity
  8
0
  6
Continuous
 62
               4
100
AcDbCircle
 10
600.9762539041551
 20
452.4146338034974
 30
0.0
 40
1.5
  0
CIRCLE
  5
156
100
AcDbEntity
  8
0
  6
Continuous
 62
               4
100
AcDbCircle
 10
604.42442853095122
 20
440.9207183808436
 30
0.0
 40
1.5
  0
CIRCLE
  5
157
100
AcDbEntity
  8
0
  6
Continuous
 62
               4
100
AcDbCircle
 10
604.42442853095122
 20
440.9207183808436
 30
0.0
 40
1.5
  0
CIRCLE
  5
158
100
AcDbEntity
  8
0
  6
Continuous
 62
               4
100
AcDbCircle
 10
607.87260315774768
 20
429.4268029581898
 30
0.0
 40
1.5
  0
CIRCLE
  5
159
100
AcDbEntity
  8
0
  6
Continuous
 62
               4
100
AcDbCircle
 10
600.97626400152797
 20
452.41463683270922
 30
0.0
 40
1.5
  0
CIRCLE
  5
15A
100
AcDbEntity
  8
0
  6
Continuous
 62
               4
100
AcDbCircle
 10
599.53952457369621
 20
457.20376825881499
 30
0.0
 40
1.5
  0
ARC
  5
15B
100
AcDbEntity
  8
0
  6
Continuous
 62
               6
100
AcDbCircle
 10
418.48167152137773
 20
273.00899927270564
 30
0.0
 40
2.2999999523162842
100
AcDbArc
 50
196.69924423399354
 51
286.69924423399368
  0
ARC
  5
15C
100
AcDbEntity
  8
0
  6
Continuous
 62
               6
100
AcDbCircle
 10
418.48167152137773
 20
273.00899927270564
 30
0.0
 40
4.5999999046325684
100
AcDbArc
 50
196.69924423399354
 51
286.69924423399368
  0
ARC
  5
15D
100
AcDbEntity
  8
0
  6
Continuous
 62
               6
100
AcDbCircle
 10
457.56098414109181
 20
284.73279305861985
 30
0.0
 40
2.2999999523162842
100
AcDbArc
 50
286.69924423399368
 51
16.699244233993603
  0
ARC
  5
15E
100
AcDbEntity
  8
0
  6
Continuous
 62
               6
100
AcDbCircle
 10
457.56098414109181
 20
284.73279305861985
 30
0.0
 40
4.5999999046325684
100
AcDbArc
 50
286.69924423399368
 51
16.699244233993603
  0
ARC
  5
15F
100
AcDbEntity
  8
0
  6
Continuous
 62
               6
100
AcDbCircle
 10
431.46979607686023
 20
371.70341993939144
 30
0.0
 40
4.5999999046325684
100
AcDbArc
 50
16.699244233993618
 51
106.6992442339936
  0
ARC
  5
160
100
AcDbEntity
  8
0
  6
Continuous
 62
               6
100
AcDbCircle
 10
431.46979607686023
 20
371.70341993939144
 30
0.0
 40
2.2999999523162842
100
AcDbArc
 50
16.699244233993618
 51
106.6992442339936
  0
ARC
  5
161
100
AcDbEntity
  8
0
  6
Continuous
 62
               6
100
AcDbCircle
 10
392.39048345714644
 20
359.97962615347723
 30
0.0
 40
2.2999999523162842
100
AcDbArc
 50
106.6992442339936
 51
196.69924423399354
  0
ARC
  5
162
100
AcDbEntity
  8
0
  6
Continuous
 62
               6
100
AcDbCircle
 10
392.39048345714644
 20
359.97962615347723
 30
0.0
 40
4.5999999046325684
100
AcDbArc
 50
106.6992442339936
 51
196.69924423399354
  0
ARC
  5
163
100
AcDbEntity
  8
0
  6
Continuous
 62
               2
100
AcDbCircle
 10
332.11447544692834
 20
374.36617689355711
 30
0.0
 40
2.5000000000000031
100
AcDbArc
 50
106.6992442339936
 51
286.69924423399351
  0
ARC
  5
164
100
AcDbEntity
  8
0
  6
Continuous
 62
               2
100
AcDbCircle
 10
366.006255637192
 20
342.15211792283344
 30
0.0
 40
0.705796188425076
100
AcDbArc
 50
196.69924423399448
 51
356.69924423399448
  0
ARC
  5
165
100
AcDbEntity
  8
0
  6
Continuous
 62
               2
100
AcDbCircle
 10
441.40245459066148
 20
180.59791939331785
 30
0.0
 40
1.500000000000004
100
AcDbArc
 50
196.69924423399337
 51
16.699244233993554
  0
ARC
  5
166
100
AcDbEntity
  8
0
  6
Continuous
 62
               2
100
AcDbCircle
 10
331.77444711567483
 20
374.62957912199295
 30
0.0
 40
0.75000000000002
100
AcDbArc
 50
106.69924423399428
 51
286.69924423399374
  0
ARC
  5
167
100
AcDbEntity
  8
0
  6
Continuous
 62
               7
100
AcDbCircle
 10
377.7246056016034
 20
356.52913439752814
 30
0.0
 40
30.0
100
AcDbArc
 50
1.5620294067002536
 51
19.691546246868189
  0
ARC
  5
168
100
AcDbEntity
  8
0
  6
Continuous
 62
               7
100
AcDbCircle
 10
397.29525427848171
 20
360.10155439410113
 30
0.0
 40
30.0
100
AcDbArc
 50
1.5620294067002536
 51
19.691546246868189
  0
ARC
  5
169
100
AcDbEntity
  8
0
  6
Continuous
 62
               7
100
AcDbCircle
 10
439.84853238961864
 20
226.21567053663983
 30
0.0
 40
13.0
100
AcDbArc
 50
264.07937928595436
 51
309.31910918203499
  0
ARC
  5
16A
100
AcDbEntity
  8
0
  6
Continuous
 62
               7
100
AcDbCircle
 10
457.53251761500508
 20
235.09701581592213
 30
0.0
 40
20.0
100
AcDbArc
 50
178.41487154792969
 51
198.49097529111998
  0
TEXT
  5
16B
100
AcDbEntity
  8
0
 62
               7
100
AcDbText
 10
619.09558086601612
 20
452.94447951633742
 30
0.0
 40
9.600000381469739
  1
29
 50
286.6992667887929
 41
0.7695
  7
FontTableH_0
 72
               5
 11
621.85412429678195
 21
443.74934789874771
 31
0.0
100
AcDbText
  0
TEXT
  5
16C
100
AcDbEntity
  8
0
 62
               7
100
AcDbText
 10
602.76324444023487
 20
451.69978957493117
 30
0.0
 40
9.600000381469739
  1
12
 50
286.6992667887929
 41
0.7695
  7
FontTableH_0
 72
               5
 11
605.5217878710007
 21
442.50465795734146
 31
0.0
100
AcDbText
  0
TEXT
  5
16D
100
AcDbEntity
  8
0
 62
               7
100
AcDbText
 10
606.21148662773487
 20
440.20583205539992
 30
0.0
 40
9.600000381469739
  1
12
 50
286.6992667887929
 41
0.7695
  7
FontTableH_0
 72
               5
 11
608.9700300585007
 21
431.01070043781021
 31
0.0
100
AcDbText
  0
TEXT
  5
16E
100
AcDbEntity
  8
0
 62
               7
100
AcDbText
 10
599.28533916679737
 20
463.28847365696242
 30
0.0
 40
9.600000381469739
  1
5
 50
286.6992667887929
 41
0.7695
  7
FontTableH_0
 72
               5
 11
600.66461088218034
 21
458.69090784816757
 31
0.0
100
AcDbText
  0
TEXT
  5
16F
100
AcDbEntity
  8
0
 62
               7
100
AcDbText
 10
733.53679805451975
 20
26.713203554805766
 30
0.0
 40
8.9999997615814333
  1
軒先詳細図（1） 【S=1/3】
 41
0.7695
  7
FontTableH_0
 72
               5
 11
846.03679507428762
 21
26.713203554805766
 31
0.0
100
AcDbText
  0
TEXT
  5
170
100
AcDbEntity
  8
0
 62
               7
100
AcDbText
 10
338.69754009453175
 20
489.07771926243123
 30
0.0
 40
9.6000000000000103
  1
アスファルトルーフィング 22kg
 41
0.7695
  7
FontTableH_0
 72
               5
 11
477.89754009453191
 21
489.07771926243123
 31
0.0
100
AcDbText
  0
TEXT
  5
171
100
AcDbEntity
  8
0
 62
               7
100
AcDbText
 10
338.69754009453175
 20
473.07778029758742
 30
0.0
 40
9.6000000000000103
  1
硬質木片セメント板 12mm＋12mm
 41
0.7695
  7
FontTableH_0
 72
               5
 11
477.89754009453191
 21
473.07778029758742
 31
0.0
100
AcDbText
  0
TEXT
  5
172
100
AcDbEntity
  8
0
 62
               7
100
AcDbText
 10
328.76492290703175
 20
403.64082961399367
 30
0.0
 40
9.6000000000000103
  1
25
 50
16.699255860263833
 41
0.7695
  7
FontTableH_0
 72
               5
 11
337.96005468540085
 21
406.39937118127642
 31
0.0
100
AcDbText
  0
TEXT
  5
173
100
AcDbEntity
  8
0
 62
               7
100
AcDbText
 10
315.78726177421925
 20
352.24416213352492
 30
0.0
 40
9.6000000000000103
  1
40
 50
286.6992667887929
 41
0.7695
  7
FontTableH_0
 72
               5
 11
318.54580509537044
 21
343.04903088131692
 31
0.0
100
AcDbText
  0
TEXT
  5
174
100
AcDbEntity
  8
0
 62
               7
100
AcDbText
 10
215.339202692188
 20
283.15029006321242
 30
0.0
 40
9.6000000000000103
  1
軒先唐草：屋根同材
 41
0.7695
  7
FontTableH_0
 72
               5
 11
301.73920269218809
 21
283.15029006321242
 31
0.0
100
AcDbText
  0
TEXT
  5
175
100
AcDbEntity
  8
0
 62
               7
100
AcDbText
 10
240.89724712578175
 20
197.9519258053999
 30
0.0
 40
9.6000000000000103
  1
軒先役物：屋根同材
 41
0.7695
  7
FontTableH_0
 72
               5
 11
327.29724712578184
 21
197.9519258053999
 31
0.0
100
AcDbText
  0
TEXT
  5
176
100
AcDbEntity
  8
0
 62
               7
100
AcDbText
 10
494.04821758476618
 20
177.96135573704055
 30
0.0
 40
9.6000000000000103
  1
力板
 41
0.7695
  7
FontTableH_0
 72
               5
 11
513.24821758476617
 21
177.96135573704055
 31
0.0
100
AcDbText
  0
TEXT
  5
177
100
AcDbEntity
  8
0
 62
               7
100
AcDbText
 10
378.51452617851612
 20
324.81081252414992
 30
0.0
 40
9.6000000000000103
  1
25
 50
16.699255860263833
 41
0.7695
  7
FontTableH_0
 72
               5
 11
387.70965795688522
 21
327.56935409143267
 31
0.0
100
AcDbText
  0
TEXT
  5
178
100
AcDbEntity
  8
0
 62
               7
100
AcDbText
 10
473.67248516289106
 20
334.50240187961867
 30
0.0
 40
9.6000000000000103
  1
母屋（別途）
 41
0.7695
  7
FontTableH_0
 72
               5
 11
531.27248516289114
 21
334.50240187961867
 31
0.0
100
AcDbText
  0
TEXT
  5
179
100
AcDbEntity
  8
0
 62
               7
100
AcDbText
 10
338.69754009453175
 20
505.07765822727487
 30
0.0
 40
9.6000000000000103
  1
プロムナ－ル－フT：各種金属板
 41
0.7695
  7
FontTableH_0
 72
               5
 11
477.89754009453191
 21
505.07765822727487
 31
0.0
100
AcDbText
  0
TEXT
  5
17A
100
AcDbEntity
  8
0
 62
               7
100
AcDbText
 10
50.892136637009862
 20
601.35786449547834
 30
0.0
 40
8.9999997615814333
  1
プロムナールーフT
 41
0.7695
  7
FontTableH_0
 72
               5
 11
127.39213461045205
 21
601.35786449547834
 31
0.0
100
AcDbText
  0
TEXT
  5
17B
100
AcDbEntity
  8
0
 62
               7
100
AcDbText
 10
302.46565609040169
 20
429.98512893039992
 30
0.0
 40
9.5999999999999766
  1
ガーター
 41
0.7695
  7
FontTableH_0
 72
               5
 11
340.86565609040179
 21
429.98512893039992
 31
0.0
100
AcDbText
  0
ENDSEC
  0
SECTION
  2
OBJECTS
  0
DICTIONARY
  5
19
100
AcDbDictionary
  3
ACAD_GROUP
350
1A
  3
ACAD_MLINESTYLE
350
1B
  3
DWGPROPS
350
17C
  0
DICTIONARY
  5
1A
102
{ACAD_REACTORS
330
19
102
}
100
AcDbDictionary
  0
DICTIONARY
  5
1B
102
{ACAD_REACTORS
330
19
102
}
100
AcDbDictionary
  3
STANDARD
350
1C
  0
MLINESTYLE
  5
1C
102
{ACAD_REACTORS
330
1B
102
}
100
AcDbMlineStyle
  2
Standard
 70
               0
  3

 62
               0
 51
90.0
 52
90.0
 71
               2
 49
0.5
 62
             256
  6
ByLayer
 49
-0.5
 62
             256
  6
ByLayer
  0
XRECORD
  5
17C
100
AcDbXrecord
  1
DWGPROPS COOKIE
  2

  3

  4

  6

  7

  0
ENDSEC
  0
EOF
