  0
SECTION
  2
HEADER
  9
$ACADVER
  1
AC1014
  9
$ACADMAINTVER
 70
               0
  9
$DWGCODEPAGE
  3
ANSI_932
  9
$INSBASE
 10
0.0
 20
0.0
 30
0.0
  9
$EXTMIN
 10
0.0
 20
0.0
 30
0.0
  9
$EXTMAX
 10
1452.1105828179161
 20
895.40830891612472
 30
0.0
  9
$LIMMIN
 10
0.0
 20
0.0
  9
$LIMMAX
 10
1452.1105828179161
 20
895.40830891612472
  9
$ORTHOMODE
 70
               0
  9
$REGENMODE
 70
               1
  9
$FILLMODE
 70
               1
  9
$QTEXTMODE
 70
               0
  9
$MIRRTEXT
 70
               1
  9
$DRAGMODE
 70
               2
  9
$LTSCALE
 40
1.0
  9
$OSMODE
 70
               0
  9
$ATTMODE
 70
               1
  9
$TEXTSIZE
 40
0.2
  9
$TRACEWID
 40
0.05
  9
$TEXTSTYLE
  7
Standard
  9
$CLAYER
  8
0
  9
$CELTYPE
  6
Continuous
  9
$CECOLOR
 62
             256
  9
$CELTSCALE
 40
1.0
  9
$DELOBJ
 70
               1
  9
$DISPSILH
 70
               0
  9
$DIMSCALE
 40
1.0
  9
$DIMASZ
 40
0.18
  9
$DIMEXO
 40
0.0625
  9
$DIMDLI
 40
0.38
  9
$DIMRND
 40
0.0
  9
$DIMDLE
 40
0.0
  9
$DIMEXE
 40
0.18
  9
$DIMTP
 40
0.0
  9
$DIMTM
 40
0.0
  9
$DIMTXT
 40
0.18
  9
$DIMCEN
 40
0.09
  9
$DIMTSZ
 40
0.0
  9
$DIMTOL
 70
               0
  9
$DIMLIM
 70
               0
  9
$DIMTIH
 70
               1
  9
$DIMTOH
 70
               1
  9
$DIMSE1
 70
               0
  9
$DIMSE2
 70
               0
  9
$DIMTAD
 70
               0
  9
$DIMZIN
 70
               0
  9
$DIMBLK
  1

  9
$DIMASO
 70
               1
  9
$DIMSHO
 70
               1
  9
$DIMPOST
  1

  9
$DIMAPOST
  1

  9
$DIMALT
 70
               0
  9
$DIMALTD
 70
               2
  9
$DIMALTF
 40
25.399999999999999
  9
$DIMLFAC
 40
1.0
  9
$DIMTOFL
 70
               0
  9
$DIMTVP
 40
0.0
  9
$DIMTIX
 70
               0
  9
$DIMSOXD
 70
               0
  9
$DIMSAH
 70
               0
  9
$DIMBLK1
  1

  9
$DIMBLK2
  1

  9
$DIMSTYLE
  2
Standard
  9
$DIMCLRD
 70
               0
  9
$DIMCLRE
 70
               0
  9
$DIMCLRT
 70
               0
  9
$DIMTFAC
 40
1.0
  9
$DIMGAP
 40
0.09
  9
$DIMJUST
 70
               0
  9
$DIMSD1
 70
               0
  9
$DIMSD2
 70
               0
  9
$DIMTOLJ
 70
               1
  9
$DIMTZIN
 70
               0
  9
$DIMALTZ
 70
               0
  9
$DIMALTTZ
 70
               0
  9
$DIMFIT
 70
               3
  9
$DIMUPT
 70
               0
  9
$DIMUNIT
 70
               2
  9
$DIMDEC
 70
               4
  9
$DIMTDEC
 70
               4
  9
$DIMALTU
 70
               2
  9
$DIMALTTD
 70
               2
  9
$DIMTXSTY
  7
Standard
  9
$DIMAUNIT
 70
               0
  9
$LUNITS
 70
               2
  9
$LUPREC
 70
               4
  9
$SKETCHINC
 40
0.1
  9
$FILLETRAD
 40
0.0
  9
$AUNITS
 70
               0
  9
$AUPREC
 70
               0
  9
$MENU
  1
acad
  9
$ELEVATION
 40
0.0
  9
$PELEVATION
 40
0.0
  9
$THICKNESS
 40
0.0
  9
$LIMCHECK
 70
               0
  9
$BLIPMODE
 70
               1
  9
$CHAMFERA
 40
0.0
  9
$CHAMFERB
 40
0.0
  9
$CHAMFERC
 40
0.0
  9
$CHAMFERD
 40
0.0
  9
$SKPOLY
 70
               0
  9
$TDCREATE
 40
0.000000000
  9
$TDUPDATE
 40
0.000000000
  9
$TDINDWG
 40
0.0000000000
  9
$TDUSRTIMER
 40
0.0000000000
  9
$USRTIMER
 70
               1
  9
$ANGBASE
 50
0.0
  9
$ANGDIR
 70
               0
  9
$PDMODE
 70
               0
  9
$PDSIZE
 40
0.0
  9
$PLINEWID
 40
0.0
  9
$COORDS
 70
               0
  9
$SPLFRAME
 70
               0
  9
$SPLINETYPE
 70
               6
  9
$SPLINESEGS
 70
               8
  9
$ATTDIA
 70
               0
  9
$ATTREQ
 70
               1
  9
$HANDLING
 70
               1
  9
$HANDSEED
  5
24C
  9
$SURFTAB1
 70
               6
  9
$SURFTAB2
 70
               6
  9
$SURFTYPE
 70
               6
  9
$SURFU
 70
               6
  9
$SURFV
 70
               6
  9
$UCSNAME
  2

  9
$UCSORG
 10
0.0
 20
0.0
 30
0.0
  9
$UCSXDIR
 10
1.0
 20
0.0
 30
0.0
  9
$UCSYDIR
 10
0.0
 20
1.0
 30
0.0
  9
$PUCSNAME
  2

  9
$PUCSORG
 10
0.0
 20
0.0
 30
0.0
  9
$PUCSXDIR
 10
1.0
 20
0.0
 30
0.0
  9
$PUCSYDIR
 10
0.0
 20
1.0
 30
0.0
  9
$USERI1
 70
               0
  9
$USERI2
 70
               0
  9
$USERI3
 70
               0
  9
$USERI4
 70
               0
  9
$USERI5
 70
               0
  9
$USERR1
 40
0.0
  9
$USERR2
 40
0.0
  9
$USERR3
 40
0.0
  9
$USERR4
 40
0.0
  9
$USERR5
 40
0.0
  9
$WORLDVIEW
 70
               1
  9
$SHADEDGE
 70
               3
  9
$SHADEDIF
 70
              70
  9
$TILEMODE
 70
               1
  9
$MAXACTVP
 70
              16
  9
$PINSBASE
 10
0.0
 20
0.0
 30
0.0
  9
$PLIMCHECK
 70
               0
  9
$PEXTMIN
 10
1.0000000000000000E+20
 20
1.0000000000000000E+20
 30
1.0000000000000000E+20
  9
$PEXTMAX
 10
-1.0000000000000000E+20
 20
-1.0000000000000000E+20
 30
-1.0000000000000000E+20
  9
$PLIMMIN
 10
0.0
 20
0.0
  9
$PLIMMAX
 10
12.0
 20
9.0
  9
$UNITMODE
 70
               0
  9
$VISRETAIN
 70
               0
  9
$PLINEGEN
 70
               1
  9
$PSLTSCALE
 70
               0
  9
$TREEDEPTH
 70
            3020
  9
$PICKSTYLE
 70
               1
  9
$CMLSTYLE
  2
Standard
  9
$CMLJUST
 70
               0
  9
$CMLSCALE
 40
1.0
  9
$PROXYGRAPHICS
 70
               0
  9
$MEASUREMENT
 70
               0
  0
ENDSEC
  0
SECTION
  2
CLASSES
  0
CLASS
  1
LWPOLYLINE
  2
AcDbPolyline
  3
"AutoCAD"
 90
        0
280
               0
281
               1
  0
CLASS
  1
IMAGE
  2
AcDbRasterImage
  3
ISM
 90
      127
280
               0
281
               1
  0
CLASS
  1
OLE2FRAME
  2
AcDbOle2Frame
  3
""
 90
        0
280
               0
281
               1
  0
CLASS
  1
HATCH
  2
AcDbHatch
  3
"ACAD_SEDONA"
 90
        0
280
               0
281
               1
  0
CLASS
  1
DICTIONARYVAR
  2
AcDbDictionaryVar
  3
"AutoCAD"
 90
        0
280
               0
281
               0
  0
CLASS
  1
RASTERVARIABLES
  2
AcDbRasterVariables
  3
ISM
 90
        0
280
               0
281
               0
  0
CLASS
  1
IMAGEDEF
  2
AcDbRasterImageDef
  3
ISM
 90
        0
280
               0
281
               0
  0
CLASS
  1
IMAGEDEF_REACTOR
  2
AcDbRasterImageDefReactor
  3
ISM
 90
        1
280
               0
281
               0
  0
CLASS
  1
IDBUFFER
  2
AcDbIdBuffer
  3
"Acad"
 90
        0
280
               0
281
               0
  0
CLASS
  1
SPATIAL_FILTER
  2
AcDbSpatialFilter
  3
"Acad"
 90
        0
280
               0
281
               0
  0
CLASS
  1
XRECORD
  2
AcDbXrecord
  3
"<Built In>"
 90
        0
280
               0
281
               0
  0
CLASS
  1
SORTENTSTABLE
  2
AcDbSortentsTable
  3
"AutoCAD"
 90
        0
280
               0
281
               0
  0
CLASS
  1
LAYER_INDEX
  2
AcDbLayerIndex
  3
"Acad"
 90
        0
280
               0
281
               0
  0
CLASS
  1
SPATIAL_INDEX
  2
AcDbSpatialIndex
  3
"Acad"
 90
        0
280
               0
281
               0
  0
CLASS
  1
OBJECT_PTR
  2
CAseDLPNTableRecord
  3
"ASE-LPNTableRecord"
 90
        1
280
               0
281
               0
  0
CLASS
  1
LAYOUT
  2
AcDbLayout
  3
"AutoCAD 2000"
 90
        0
280
               0
281
               0
  0
CLASS
  1
PLOTSETTINGS
  2
AcDbPlotSettings
  3
"AutoCAD 2000"
 90
        0
280
               0
281
               0
  0
CLASS
  1
ACDBDICTIONARYWDFLT
  2
AcDbDictionaryWithDefault
  3
"AutoCAD 2000"
 90
        0
280
               0
281
               0
  0
CLASS
  1
ACDBPLACEHOLDER
  2
AcDbPlaceHolder
  3
"AutoCAD 2000"
 90
        0
280
               0
281
               0
  0
CLASS
  1
VBA_PROJECT
  2
AcDbVbaProject
  3
"acadvba"
 90
        0
280
               0
281
               0
  0
CLASS
  1
WIPEOUT
  2
AcDbWipeout
  3
WipeOut|AutoCAD Express Tool|expresstools@autodesk.com
 90
      127
280
               0
281
               1
  0
CLASS
  1
WIPEOUTVARIABLES
  2
AcDbWipeoutVariables
  3
WipeOut|AutoCAD Express Tool|expresstools@autodesk.com
 90
        0
280
               0
281
               0
  0
CLASS
  1
RTEXT
  2
RText
  3
RText|AutoCAD Express Tool|expresstools@autodesk.com
 90
        0
280
               0
281
               1
  0
CLASS
  1
ARCALIGNEDTEXT
  2
AcDbArcAlignedText
  3
ATEXT|AutoCAD Express Tool|expresstools@autodesk.com
 90
        0
280
               0
281
               1
  0
ENDSEC
  0
SECTION
  2
TABLES
  0
TABLE
  2
VPORT
  5
7
100
AcDbSymbolTable
 70
               1
  0
VPORT
  5
15
100
AcDbSymbolTableRecord
100
AcDbViewportTableRecord
  2
*ACTIVE
 70
               0
 10
0.0
 20
0.0
 11
1.0
 21
1.0
 12
726.05529140895806
 22
447.70415445806236
 13
0.0
 23
0.0
 14
10.0
 24
10.0
 15
10.0
 25
10.0
 16
0.0
 26
0.0
 36
1.0
 17
0.0
 27
0.0
 37
0.0
 40
895.40830891612472
 41
1.6217300737086853
 42
50.0
 43
0.0
 44
0.0
 50
0.0
 51
0.0
 71
               0
 72
             100
 73
               1
 74
               1
 75
               0
 76
               0
 77
               0
 78
               0
  0
ENDTAB
  0
TABLE
  2
LTYPE
  5
4
100
AcDbSymbolTable
 70
              38
  0
LTYPE
  5
11
100
AcDbSymbolTableRecord
100
AcDbLinetypeTableRecord
  2
ByBlock
 70
              64
  3

 72
              65
 73
               0
 40
0.0
  0
LTYPE
  5
12
100
AcDbSymbolTableRecord
100
AcDbLinetypeTableRecord
  2
ByLayer
 70
              64
  3

 72
              65
 73
               0
 40
0.0
  0
LTYPE
  5
13
100
AcDbSymbolTableRecord
100
AcDbLinetypeTableRecord
  2
Continuous
 70
              64
  3
Solid line
 72
              65
 73
               0
 40
0.0
  0
LTYPE
  5
1D
100
AcDbSymbolTableRecord
100
AcDbLinetypeTableRecord
  2
DOT
 70
              64
  3
Dot . . . . . . . . . . . . . . . . . . . . . .
 72
              65
 73
               2
 40
6.3499999999999996
 49
0.35
 74
               0
 49
-6.0
 74
               0
  0
LTYPE
  5
1E
100
AcDbSymbolTableRecord
100
AcDbLinetypeTableRecord
  2
DOT2
 70
              64
  3
Dot (.5x) .....................................
 72
              65
 73
               2
 40
3.1749999999999998
 49
0.175
 74
               0
 49
-3.0
 74
               0
  0
LTYPE
  5
1F
100
AcDbSymbolTableRecord
100
AcDbLinetypeTableRecord
  2
DOTX2
 70
              64
  3
Dot (2x) .  .  .  .  .  .  .  .  .  .  .  .  . 
 72
              65
 73
               2
 40
12.699999999999999
 49
0.7
 74
               0
 49
-12.0
 74
               0
  0
LTYPE
  5
20
100
AcDbSymbolTableRecord
100
AcDbLinetypeTableRecord
  2
DASHED
 70
              64
  3
Dashed __ __ __ __ __ __ __ __ __ __ __ __ __ _
 72
              65
 73
               2
 40
12.699999999999999
 49
6.3499999999999996
 74
               0
 49
-6.3499999999999996
 74
               0
  0
LTYPE
  5
21
100
AcDbSymbolTableRecord
100
AcDbLinetypeTableRecord
  2
DASHED2
 70
              64
  3
Dashed (.5x) _ _ _ _ _ _ _ _ _ _ _ _ _ _ _ _ _
 72
              65
 73
               2
 40
6.3499999999999996
 49
3.1749999999999998
 74
               0
 49
-3.1749999999999998
 74
               0
  0
LTYPE
  5
22
100
AcDbSymbolTableRecord
100
AcDbLinetypeTableRecord
  2
DASHEDX2
 70
              64
  3
Dashed (2x) ____  ____  ____  ____  ____  ___
 72
              65
 73
               2
 40
25.399999999999999
 49
12.699999999999999
 74
               0
 49
-12.699999999999999
 74
               0
  0
LTYPE
  5
23
100
AcDbSymbolTableRecord
100
AcDbLinetypeTableRecord
  2
DASHDOT
 70
              64
  3
Dash dot __ . __ . __ . __ . __ . __ . __ . __
 72
              65
 73
               4
 40
25.399999999999999
 49
12.699999999999999
 74
               0
 49
-6.0
 74
               0
 49
0.7
 74
               0
 49
-6.0
 74
               0
  0
LTYPE
  5
24
100
AcDbSymbolTableRecord
100
AcDbLinetypeTableRecord
  2
DASHDOT2
 70
              64
  3
Dash dot (.5x) _._._._._._._._._._._._._._._.
 72
              65
 73
               4
 40
12.699999999999999
 49
6.3499999999999996
 74
               0
 49
-3.0
 74
               0
 49
0.35
 74
               0
 49
-3.0
 74
               0
  0
LTYPE
  5
25
100
AcDbSymbolTableRecord
100
AcDbLinetypeTableRecord
  2
DASHDOTX2
 70
              64
  3
Dash dot (2x) ____  .  ____  .  ____  .  ___
 72
              65
 73
               4
 40
50.799999999999997
 49
25.399999999999999
 74
               0
 49
-12.0
 74
               0
 49
1.3999999999999999
 74
               0
 49
-12.0
 74
               0
  0
LTYPE
  5
26
100
AcDbSymbolTableRecord
100
AcDbLinetypeTableRecord
  2
DIVIDE
 70
              64
  3
Divide ____ . . ____ . . ____ . . ____ . . ____
 72
              65
 73
               6
 40
31.75
 49
12.699999999999999
 74
               0
 49
-6.0
 74
               0
 49
0.875
 74
               0
 49
-6.0
 74
               0
 49
0.875
 74
               0
 49
-6.0
 74
               0
  0
LTYPE
  5
27
100
AcDbSymbolTableRecord
100
AcDbLinetypeTableRecord
  2
DIVIDE2
 70
              64
  3
Divide (.5x) __..__..__..__..__..__..__..__.._
 72
              65
 73
               6
 40
15.875
 49
6.3499999999999996
 74
               0
 49
-3.0
 74
               0
 49
0.4375
 74
               0
 49
-3.0
 74
               0
 49
0.4375
 74
               0
 49
-3.0
 74
               0
  0
LTYPE
  5
28
100
AcDbSymbolTableRecord
100
AcDbLinetypeTableRecord
  2
DIVIDEX2
 70
              64
  3
Divide (2x) ________  .  .  ________  .  .  _
 72
              65
 73
               6
 40
63.5
 49
25.399999999999999
 74
               0
 49
-12.0
 74
               0
 49
1.75
 74
               0
 49
-12.0
 74
               0
 49
1.75
 74
               0
 49
-12.0
 74
               0
  0
LTYPE
  5
29
100
AcDbSymbolTableRecord
100
AcDbLinetypeTableRecord
  2
HIDDEN
 70
              64
  3
Hidden __ __ __ __ __ __ __ __ __ __ __ __ __ _
 72
              65
 73
               2
 40
9.5250000000000004
 49
6.3499999999999996
 74
               0
 49
-3.1749999999999998
 74
               0
  0
LTYPE
  5
2A
100
AcDbSymbolTableRecord
100
AcDbLinetypeTableRecord
  2
HIDDEN2
 70
              64
  3
Hidden (.5x) _ _ _ _ _ _ _ _ _ _ _ _ _ _ _ _ _
 72
              65
 73
               2
 40
4.7625000000000002
 49
3.1749999999999998
 74
               0
 49
-1.5874999999999999
 74
               0
  0
LTYPE
  5
2B
100
AcDbSymbolTableRecord
100
AcDbLinetypeTableRecord
  2
HIDDENX2
 70
              64
  3
Hidden (2x) ____ ____ ____ ____ ____ ____ ____
 72
              65
 73
               2
 40
19.050000000000001
 49
12.699999999999999
 74
               0
 49
-6.3499999999999996
 74
               0
  0
LTYPE
  5
2C
100
AcDbSymbolTableRecord
100
AcDbLinetypeTableRecord
  2
CENTER
 70
              64
  3
Center ____ _ ____ _ ____ _ ____ _ ____ _ ____
 72
              65
 73
               4
 40
50.799999999999997
 49
31.75
 74
               0
 49
-6.3499999999999996
 74
               0
 49
6.3499999999999996
 74
               0
 49
-6.3499999999999996
 74
               0
  0
LTYPE
  5
2D
100
AcDbSymbolTableRecord
100
AcDbLinetypeTableRecord
  2
CENTER2
 70
              64
  3
Center (.5x) ___ _ ___ _ ___ _ ___ _ ___ _ ___
 72
              65
 73
               4
 40
25.399999999999999
 49
15.875
 74
               0
 49
-3.1749999999999998
 74
               0
 49
3.1749999999999998
 74
               0
 49
-3.1749999999999998
 74
               0
  0
LTYPE
  5
2E
100
AcDbSymbolTableRecord
100
AcDbLinetypeTableRecord
  2
CENTERX2
 70
              64
  3
Center (2x) ________  __  ________  __  _____
 72
              65
 73
               4
 40
101.59999999999999
 49
63.5
 74
               0
 49
-12.699999999999999
 74
               0
 49
12.699999999999999
 74
               0
 49
-12.699999999999999
 74
               0
  0
LTYPE
  5
2F
100
AcDbSymbolTableRecord
100
AcDbLinetypeTableRecord
  2
PHANTOM
 70
              64
  3
Phantom ______  __  __  ______  __  __  ______
 72
              65
 73
               6
 40
63.5
 49
31.75
 74
               0
 49
-6.3499999999999996
 74
               0
 49
6.3499999999999996
 74
               0
 49
-6.3499999999999996
 74
               0
 49
6.3499999999999996
 74
               0
 49
-6.3499999999999996
 74
               0
  0
LTYPE
  5
30
100
AcDbSymbolTableRecord
100
AcDbLinetypeTableRecord
  2
PHANTOM2
 70
              64
  3
Phantom Phantom (.5x) ___ _ _ ___ _ _ ___ _ _ ___ _ _
 72
              65
 73
               6
 40
31.75
 49
15.875
 74
               0
 49
-3.1749999999999998
 74
               0
 49
3.1749999999999998
 74
               0
 49
-3.1749999999999998
 74
               0
 49
3.1749999999999998
 74
               0
 49
-3.1749999999999998
 74
               0
  0
LTYPE
  5
31
100
AcDbSymbolTableRecord
100
AcDbLinetypeTableRecord
  2
PHANTOM
 70
              64
  3
Phantom (2x) ____________    ____    ____   _
 72
              65
 73
               6
 40
127.0
 49
63.5
 74
               0
 49
-12.699999999999999
 74
               0
 49
12.699999999999999
 74
               0
 49
-12.699999999999999
 74
               0
 49
12.699999999999999
 74
               0
 49
-12.699999999999999
 74
               0
  0
LTYPE
  5
32
100
AcDbSymbolTableRecord
100
AcDbLinetypeTableRecord
  2
ACAD_ISO02W100
 70
              64
  3
ISO dash __ __ __ __ __ __ __ __ __ __ __ __ __
 72
              65
 73
               2
 40
15.0
 49
12.0
 74
               0
 49
-3.0
 74
               0
  0
LTYPE
  5
33
100
AcDbSymbolTableRecord
100
AcDbLinetypeTableRecord
  2
ACAD_ISO03W100
 70
              64
  3
ISO dash space __ __ __ __ __ __ __ __ __ __ __ __ __ __
 72
              65
 73
               2
 40
30.0
 49
12.0
 74
               0
 49
-18.0
 74
               0
  0
LTYPE
  5
34
100
AcDbSymbolTableRecord
100
AcDbLinetypeTableRecord
  2
ACAD_ISO04W100
 70
              64
  3
ISO long-dash dot ____ . ____ . ____ . ____ . _
 72
              65
 73
               4
 40
30.0
 49
24.0
 74
               0
 49
-3.0
 74
               0
 49
0.0
 74
               0
 49
-3.0
 74
               0
  0
LTYPE
  5
35
100
AcDbSymbolTableRecord
100
AcDbLinetypeTableRecord
  2
ACAD_ISO05W100
 70
              64
  3
ISO long-dash double-dot ____ .. ____ .. ____ .
 72
              65
 73
               6
 40
33.0
 49
24.0
 74
               0
 49
-3.0
 74
               0
 49
0.0
 74
               0
 49
-3.0
 74
               0
 49
0.0
 74
               0
 49
-3.0
 74
               0
  0
LTYPE
  5
36
100
AcDbSymbolTableRecord
100
AcDbLinetypeTableRecord
  2
ACAD_ISO06W100
 70
              64
  3
ISO long-dash triple-dot ____ ... ____ ... ____
 72
              65
 73
               8
 40
36.0
 49
24.0
 74
               0
 49
-3.0
 74
               0
 49
0.0
 74
               0
 49
-3.0
 74
               0
 49
0.0
 74
               0
 49
-3.0
 74
               0
 49
0.0
 74
               0
 49
-3.0
 74
               0
  0
LTYPE
  5
37
100
AcDbSymbolTableRecord
100
AcDbLinetypeTableRecord
  2
ACAD_ISO07W100
 70
              64
  3
ISO dot . . . . . . . . . . . . . . . . . . . .
 72
              65
 73
               2
 40
3.0
 49
0.0
 74
               0
 49
-3.0
 74
               0
  0
LTYPE
  5
38
100
AcDbSymbolTableRecord
100
AcDbLinetypeTableRecord
  2
ACAD_ISO08W100
 70
              64
  3
ISO long-dash short-dash ____ __ ____ __ ____ _
 72
              65
 73
               4
 40
36.0
 49
24.0
 74
               0
 49
-3.0
 74
               0
 49
6.0
 74
               0
 49
-3.0
 74
               0
  0
LTYPE
  5
39
100
AcDbSymbolTableRecord
100
AcDbLinetypeTableRecord
  2
ACAD_ISO09W100
 70
              64
  3
ISO long-dash double-short-dash ____ __ __ ____
 72
              65
 73
               6
 40
45.0
 49
24.0
 74
               0
 49
-3.0
 74
               0
 49
6.0
 74
               0
 49
-3.0
 74
               0
 49
6.0
 74
               0
 49
-3.0
 74
               0
  0
LTYPE
  5
3A
100
AcDbSymbolTableRecord
100
AcDbLinetypeTableRecord
  2
ACAD_ISO10W100
 70
              64
  3
ISO dash dot __ . __ . __ . __ . __ . __ . __ .
 72
              65
 73
               4
 40
18.0
 49
12.0
 74
               0
 49
-3.0
 74
               0
 49
0.0
 74
               0
 49
-3.0
 74
               0
  0
LTYPE
  5
3B
100
AcDbSymbolTableRecord
100
AcDbLinetypeTableRecord
  2
ACAD_ISO11W100
 70
              64
  3
ISO double-dash dot __ __ . __ __ . __ __ . __ 
 72
              65
 73
               6
 40
33.0
 49
12.0
 74
               0
 49
-3.0
 74
               0
 49
12.0
 74
               0
 49
-3.0
 74
               0
 49
0.0
 74
               0
 49
-3.0
 74
               0
  0
LTYPE
  5
3C
100
AcDbSymbolTableRecord
100
AcDbLinetypeTableRecord
  2
ACAD_ISO12W100
 70
              64
  3
ISO dash double-dot __ . . __ . . __ . . __ . .
 72
              65
 73
               6
 40
21.0
 49
12.0
 74
               0
 49
-3.0
 74
               0
 49
0.0
 74
               0
 49
-3.0
 74
               0
 49
0.0
 74
               0
 49
-3.0
 74
               0
  0
LTYPE
  5
3D
100
AcDbSymbolTableRecord
100
AcDbLinetypeTableRecord
  2
ACAD_ISO13W100
 70
              64
  3
ISO double-dash double-dot __ __ . . __ __ . . 
 72
              65
 73
               8
 40
36.0
 49
12.0
 74
               0
 49
-3.0
 74
               0
 49
12.0
 74
               0
 49
-3.0
 74
               0
 49
0.0
 74
               0
 49
-3.0
 74
               0
 49
0.0
 74
               0
 49
-3.0
 74
               0
  0
LTYPE
  5
3E
100
AcDbSymbolTableRecord
100
AcDbLinetypeTableRecord
  2
ACAD_ISO14W100
 70
              64
  3
ISO dash triple-dot __ . . . __ . . . __ . . . 
 72
              65
 73
               8
 40
24.0
 49
12.0
 74
               0
 49
-3.0
 74
               0
 49
0.0
 74
               0
 49
-3.0
 74
               0
 49
0.0
 74
               0
 49
-3.0
 74
               0
 49
0.0
 74
               0
 49
-3.0
 74
               0
  0
LTYPE
  5
3F
100
AcDbSymbolTableRecord
100
AcDbLinetypeTableRecord
  2
ACAD_ISO15W100
 70
              64
  3
ISO double-dash double-dot __ __ . . __ __ . . 
 72
              65
 73
              10
 40
39.0
 49
12.0
 74
               0
 49
-3.0
 74
               0
 49
12.0
 74
               0
 49
-3.0
 74
               0
 49
0.0
 74
               0
 49
-3.0
 74
               0
 49
0.0
 74
               0
 49
-3.0
 74
               0
 49
0.0
 74
               0
 49
-3.0
 74
               0
  0
ENDTAB
  0
TABLE
  2
LAYER
  5
2
100
AcDbSymbolTable
 70
              16
  0
LAYER
  5
14
100
AcDbSymbolTableRecord
100
AcDbLayerTableRecord
  2
0
 70
               0
 62
               7
  6
Continuous
  0
LAYER
  5
41
100
AcDbSymbolTableRecord
100
AcDbLayerTableRecord
  2
Layer00001
 70
               0
 62
               7
  6
Continuous
  0
LAYER
  5
42
100
AcDbSymbolTableRecord
100
AcDbLayerTableRecord
  2
Layer00002
 70
               0
 62
               7
  6
Continuous
  0
LAYER
  5
43
100
AcDbSymbolTableRecord
100
AcDbLayerTableRecord
  2
Layer00003
 70
               0
 62
               7
  6
Continuous
  0
LAYER
  5
44
100
AcDbSymbolTableRecord
100
AcDbLayerTableRecord
  2
Layer00004
 70
               0
 62
               7
  6
Continuous
  0
LAYER
  5
45
100
AcDbSymbolTableRecord
100
AcDbLayerTableRecord
  2
Layer00005
 70
               0
 62
               7
  6
Continuous
  0
LAYER
  5
46
100
AcDbSymbolTableRecord
100
AcDbLayerTableRecord
  2
Layer00006
 70
               0
 62
               7
  6
Continuous
  0
LAYER
  5
47
100
AcDbSymbolTableRecord
100
AcDbLayerTableRecord
  2
Layer00007
 70
               0
 62
               7
  6
Continuous
  0
LAYER
  5
48
100
AcDbSymbolTableRecord
100
AcDbLayerTableRecord
  2
Layer00008
 70
               0
 62
               7
  6
Continuous
  0
LAYER
  5
49
100
AcDbSymbolTableRecord
100
AcDbLayerTableRecord
  2
Layer00009
 70
               0
 62
               7
  6
Continuous
  0
LAYER
  5
4A
100
AcDbSymbolTableRecord
100
AcDbLayerTableRecord
  2
Layer00010
 70
               0
 62
               7
  6
Continuous
  0
LAYER
  5
4B
100
AcDbSymbolTableRecord
100
AcDbLayerTableRecord
  2
Layer00011
 70
               0
 62
               7
  6
Continuous
  0
LAYER
  5
4C
100
AcDbSymbolTableRecord
100
AcDbLayerTableRecord
  2
Layer00012
 70
               0
 62
               7
  6
Continuous
  0
LAYER
  5
4D
100
AcDbSymbolTableRecord
100
AcDbLayerTableRecord
  2
Layer00013
 70
               0
 62
               7
  6
Continuous
  0
LAYER
  5
4E
100
AcDbSymbolTableRecord
100
AcDbLayerTableRecord
  2
Layer00014
 70
               0
 62
               7
  6
Continuous
  0
LAYER
  5
4F
100
AcDbSymbolTableRecord
100
AcDbLayerTableRecord
  2
Layer00015
 70
               0
 62
               7
  6
Continuous
  0
ENDTAB
  0
TABLE
  2
STYLE
  5
3
100
AcDbSymbolTable
 70
               2
  0
STYLE
  5
17
100
AcDbSymbolTableRecord
100
AcDbTextStyleTableRecord
  2
Standard
 70
               0
 40
0.0
 41
1.0
 50
0.0
 71
               0
 42
0.0
  3
txt.shx
  4
bigfont.shx
  0
STYLE
  5
40
100
AcDbSymbolTableRecord
100
AcDbTextStyleTableRecord
  2
STANDARD_T
 70
               4
 40
0.0
 41
1.0
 50
0.0
 71
               0
 42
0.0
  3
txt.shx
  4
bigfont.shx
  0
ENDTAB
  0
TABLE
  2
VIEW
  5
5
100
AcDbSymbolTable
 70
               0
  0
ENDTAB
  0
TABLE
  2
UCS
  5
6
100
AcDbSymbolTable
 70
               0
  0
ENDTAB
  0
TABLE
  2
APPID
  5
8
100
AcDbSymbolTable
 70
               1
  0
APPID
  5
16
100
AcDbSymbolTableRecord
100
AcDbRegAppTableRecord
  2
ACAD
 70
               0
  0
ENDTAB
  0
TABLE
  2
DIMSTYLE
  5
9
100
AcDbSymbolTable
 70
               1
  0
DIMSTYLE
105
18
100
AcDbSymbolTableRecord
100
AcDbDimStyleTableRecord
  2
Standard
 70
               0
  3

  4

  5

  6

  7

 40
1.0
 41
0.18
 42
0.0625
 43
0.38
 44
0.18
 45
0.0
 46
0.0
 47
0.0
 48
0.0
 71
               0
 72
               0
 73
               1
 74
               1
 75
               0
 76
               0
 77
               0
 78
               0
140
0.18
141
0.09
142
0.0
143
25.399999999999999
144
1.0
145
0.0
146
1.0
147
0.09
170
               0
171
               2
172
               0
173
               0
174
               0
175
               0
176
               0
177
               0
178
               0
270
               2
271
               4
272
               4
273
               2
274
               2
275
               0
280
               0
281
               0
282
               0
283
               1
284
               0
285
               0
286
               0
287
               3
288
               0
340
17
  0
ENDTAB
  0
TABLE
  2
BLOCK_RECORD
  5
1
100
AcDbSymbolTable
 70
               0
  0
BLOCK_RECORD
  5
A
100
AcDbSymbolTableRecord
100
AcDbBlockTableRecord
  2
*MODEL_SPACE
  0
BLOCK_RECORD
  5
B
100
AcDbSymbolTableRecord
100
AcDbBlockTableRecord
  2
*PAPER_SPACE
  0
ENDTAB
  0
ENDSEC
  0
SECTION
  2
BLOCKS
  0
BLOCK
  5
D
100
AcDbEntity
  8
0
100
AcDbBlockBegin
  2
*MODEL_SPACE
 70
               0
 10
0.0
 20
0.0
 30
0.0
  3
*MODEL_SPACE
  1

  0
ENDBLK
  5
E
100
AcDbEntity
  8
0
100
AcDbBlockEnd
  0
BLOCK
  5
F
100
AcDbEntity
 67
               1
  8
0
100
AcDbBlockBegin
  2
*PAPER_SPACE
 70
               0
 10
0.0
 20
0.0
 30
0.0
  3
*PAPER_SPACE
  1

  0
ENDBLK
  5
10
100
AcDbEntity
 67
               1
  8
0
100
AcDbBlockEnd
  0
ENDSEC
  0
SECTION
  2
ENTITIES
  0
LINE
  5
50
100
AcDbEntity
  8
0
  6
Continuous
 62
               3
100
AcDbLine
 10
534.07991189443283
 20
420.72470822686688
 30
0.0
 11
933.07991189443305
 21
420.72470822686688
 31
0.0
  0
LINE
  5
51
100
AcDbEntity
  8
0
  6
Continuous
 62
               3
100
AcDbLine
 10
534.07991189443283
 20
408.72470822686688
 30
0.0
 11
933.07991189443305
 21
408.72470822686688
 31
0.0
  0
LINE
  5
52
100
AcDbEntity
  8
0
  6
Continuous
 62
               6
100
AcDbLine
 10
929.47991198980048
 20
408.72470822686688
 30
0.0
 11
888.67991179906539
 21
408.72470822686688
 31
0.0
  0
LINE
  5
53
100
AcDbEntity
  8
0
  6
Continuous
 62
               6
100
AcDbLine
 10
884.07991189443283
 20
404.12470832223431
 30
0.0
 11
884.07991189443283
 21
388.72470822686688
 31
0.0
  0
LINE
  5
54
100
AcDbEntity
  8
0
  6
Continuous
 62
               6
100
AcDbLine
 10
884.07991189443283
 20
388.72470822686688
 30
0.0
 11
886.37991184674911
 21
388.72470822686688
 31
0.0
  0
LINE
  5
55
100
AcDbEntity
  8
0
  6
Continuous
 62
               6
100
AcDbLine
 10
886.37991184674911
 20
388.72470822686688
 30
0.0
 11
886.37991184674911
 21
404.12470832223431
 31
0.0
  0
LINE
  5
56
100
AcDbEntity
  8
0
  6
Continuous
 62
               6
100
AcDbLine
 10
888.67991179906539
 20
406.4247082745506
 30
0.0
 11
929.47991198980048
 21
406.4247082745506
 31
0.0
  0
LINE
  5
57
100
AcDbEntity
  8
0
  6
Continuous
 62
               6
100
AcDbLine
 10
931.77991194211677
 20
404.12470832223431
 30
0.0
 11
931.77991194211677
 21
313.32470813149951
 31
0.0
  0
LINE
  5
58
100
AcDbEntity
  8
0
  6
Continuous
 62
               6
100
AcDbLine
 10
929.47991198980048
 20
311.02470817918322
 30
0.0
 11
888.67991179906539
 21
311.02470817918322
 31
0.0
  0
LINE
  5
59
100
AcDbEntity
  8
0
  6
Continuous
 62
               6
100
AcDbLine
 10
886.37991184674911
 20
313.32470813149951
 30
0.0
 11
886.37991184674911
 21
328.72470822686688
 31
0.0
  0
LINE
  5
5A
100
AcDbEntity
  8
0
  6
Continuous
 62
               6
100
AcDbLine
 10
886.37991184674911
 20
328.72470822686688
 30
0.0
 11
884.07991189443283
 21
328.72470822686688
 31
0.0
  0
LINE
  5
5B
100
AcDbEntity
  8
0
  6
Continuous
 62
               6
100
AcDbLine
 10
884.07991189443283
 20
328.72470822686688
 30
0.0
 11
884.07991189443283
 21
313.32470813149951
 31
0.0
  0
LINE
  5
5C
100
AcDbEntity
  8
0
  6
Continuous
 62
               6
100
AcDbLine
 10
888.67991179906539
 20
308.72470822686688
 30
0.0
 11
929.47991198980048
 21
308.72470822686688
 31
0.0
  0
LINE
  5
5D
100
AcDbEntity
  8
0
  6
Continuous
 62
               6
100
AcDbLine
 10
934.07991189443305
 20
313.32470813149951
 30
0.0
 11
934.07991189443305
 21
404.12470832223431
 31
0.0
  0
LINE
  5
5E
100
AcDbEntity
  8
0
  6
Continuous
 62
               7
100
AcDbLine
 10
899.37428440966164
 20
432.72470822686688
 30
0.0
 11
887.37428440966164
 21
420.72470822686688
 31
0.0
  0
LINE
  5
5F
100
AcDbEntity
  8
0
  6
Continuous
 62
               7
100
AcDbLine
 10
892.30321659779611
 20
432.72470822686688
 30
0.0
 11
880.30321659779611
 21
420.72470822686688
 31
0.0
  0
LINE
  5
60
100
AcDbEntity
  8
0
  6
Continuous
 62
               7
100
AcDbLine
 10
885.23214878593058
 20
432.72470822686688
 30
0.0
 11
873.23214878593058
 21
420.72470822686688
 31
0.0
  0
LINE
  5
61
100
AcDbEntity
  8
0
  6
Continuous
 62
               7
100
AcDbLine
 10
878.16108097406504
 20
432.72470822686688
 30
0.0
 11
866.16108097406504
 21
420.72470822686688
 31
0.0
  0
LINE
  5
62
100
AcDbEntity
  8
0
  6
Continuous
 62
               7
100
AcDbLine
 10
871.09001316219974
 20
432.72470822686688
 30
0.0
 11
859.09001316219974
 21
420.72470822686688
 31
0.0
  0
LINE
  5
63
100
AcDbEntity
  8
0
  6
Continuous
 62
               7
100
AcDbLine
 10
864.01894535033421
 20
432.72470822686688
 30
0.0
 11
852.01894535033421
 21
420.72470822686688
 31
0.0
  0
LINE
  5
64
100
AcDbEntity
  8
0
  6
Continuous
 62
               7
100
AcDbLine
 10
856.94787753846867
 20
432.72470822686688
 30
0.0
 11
844.94787753846867
 21
420.72470822686688
 31
0.0
  0
LINE
  5
65
100
AcDbEntity
  8
0
  6
Continuous
 62
               7
100
AcDbLine
 10
849.87680972660314
 20
432.72470822686688
 30
0.0
 11
837.87680972660314
 21
420.72470822686688
 31
0.0
  0
LINE
  5
66
100
AcDbEntity
  8
0
  6
Continuous
 62
               7
100
AcDbLine
 10
842.80574191473761
 20
432.72470822686688
 30
0.0
 11
830.80574191473761
 21
420.72470822686688
 31
0.0
  0
LINE
  5
67
100
AcDbEntity
  8
0
  6
Continuous
 62
               7
100
AcDbLine
 10
835.7346741028723
 20
432.72470822686688
 30
0.0
 11
823.7346741028723
 21
420.72470822686688
 31
0.0
  0
LINE
  5
68
100
AcDbEntity
  8
0
  6
Continuous
 62
               7
100
AcDbLine
 10
828.66360629100677
 20
432.72470822686688
 30
0.0
 11
816.66360629100677
 21
420.72470822686688
 31
0.0
  0
LINE
  5
69
100
AcDbEntity
  8
0
  6
Continuous
 62
               7
100
AcDbLine
 10
821.59253847914124
 20
432.72470822686688
 30
0.0
 11
809.59253847914124
 21
420.72470822686688
 31
0.0
  0
LINE
  5
6A
100
AcDbEntity
  8
0
  6
Continuous
 62
               7
100
AcDbLine
 10
814.52147066727571
 20
432.72470822686688
 30
0.0
 11
809.37110219944225
 21
427.57433975903342
 31
0.0
  0
LINE
  5
6B
100
AcDbEntity
  8
0
  6
Continuous
 62
               7
100
AcDbLine
 10
777.18998003768581
 20
423.67748884473889
 30
0.0
 11
774.23719941981381
 21
420.72470822686688
 31
0.0
  0
LINE
  5
6C
100
AcDbEntity
  8
0
  6
Continuous
 62
               7
100
AcDbLine
 10
777.18998003768581
 20
430.74855665660442
 30
0.0
 11
767.16613160794839
 21
420.72470822686688
 31
0.0
  0
LINE
  5
6D
100
AcDbEntity
  8
0
  6
Continuous
 62
               7
100
AcDbLine
 10
772.09506379608285
 20
432.72470822686688
 30
0.0
 11
760.09506379608285
 21
420.72470822686688
 31
0.0
  0
LINE
  5
6E
100
AcDbEntity
  8
0
  6
Continuous
 62
               7
100
AcDbLine
 10
765.02399598421744
 20
432.72470822686688
 30
0.0
 11
753.02399598421744
 21
420.72470822686688
 31
0.0
  0
LINE
  5
6F
100
AcDbEntity
  8
0
  6
Continuous
 62
               7
100
AcDbLine
 10
757.9529281723519
 20
432.72470822686688
 30
0.0
 11
745.9529281723519
 21
420.72470822686688
 31
0.0
  0
LINE
  5
70
100
AcDbEntity
  8
0
  6
Continuous
 62
               7
100
AcDbLine
 10
750.88186036048648
 20
432.72470822686688
 30
0.0
 11
738.88186036048648
 21
420.72470822686688
 31
0.0
  0
LINE
  5
71
100
AcDbEntity
  8
0
  6
Continuous
 62
               7
100
AcDbLine
 10
743.81079254862095
 20
432.72470822686688
 30
0.0
 11
731.81079254862095
 21
420.72470822686688
 31
0.0
  0
LINE
  5
72
100
AcDbEntity
  8
0
  6
Continuous
 62
               7
100
AcDbLine
 10
736.73972473675553
 20
432.72470822686688
 30
0.0
 11
724.73972473675553
 21
420.72470822686688
 31
0.0
  0
LINE
  5
73
100
AcDbEntity
  8
0
  6
Continuous
 62
               7
100
AcDbLine
 10
729.66865692489
 20
432.72470822686688
 30
0.0
 11
717.66865692489
 21
420.72470822686688
 31
0.0
  0
LINE
  5
74
100
AcDbEntity
  8
0
  6
Continuous
 62
               7
100
AcDbLine
 10
722.59758911302458
 20
432.72470822686688
 30
0.0
 11
710.59758911302458
 21
420.72470822686688
 31
0.0
  0
LINE
  5
75
100
AcDbEntity
  8
0
  6
Continuous
 62
               7
100
AcDbLine
 10
574.10516506384954
 20
432.72470822686688
 30
0.0
 11
562.10516506384954
 21
420.72470822686688
 31
0.0
  0
LINE
  5
76
100
AcDbEntity
  8
0
  6
Continuous
 62
               7
100
AcDbLine
 10
567.03409725198412
 20
432.72470822686688
 30
0.0
 11
555.03409725198401
 21
420.72470822686688
 31
0.0
  0
LINE
  5
77
100
AcDbEntity
  8
0
  6
Continuous
 62
               7
100
AcDbLine
 10
559.96302944011859
 20
432.72470822686688
 30
0.0
 11
547.96302944011859
 21
420.72470822686688
 31
0.0
  0
LINE
  5
78
100
AcDbEntity
  8
0
  6
Continuous
 62
               7
100
AcDbLine
 10
552.89196162825306
 20
432.72470822686688
 30
0.0
 11
540.89196162825306
 21
420.72470822686688
 31
0.0
  0
LINE
  5
79
100
AcDbEntity
  8
0
  6
Continuous
 62
               7
100
AcDbLine
 10
545.82089381638764
 20
432.72470822686688
 30
0.0
 11
534.07991189443283
 21
420.98372630491212
 31
0.0
  0
LINE
  5
7A
100
AcDbEntity
  8
0
  6
Continuous
 62
               7
100
AcDbLine
 10
538.74982600452222
 20
432.72470822686688
 30
0.0
 11
534.07991189443283
 21
428.0547941167776
 31
0.0
  0
LINE
  5
7B
100
AcDbEntity
  8
0
  6
Continuous
 62
               7
100
AcDbLine
 10
536.7346741028723
 20
408.72470822686688
 30
0.0
 11
534.07991189443283
 21
411.37947043530619
 31
0.0
  0
LINE
  5
7C
100
AcDbEntity
  8
0
  6
Continuous
 62
               7
100
AcDbLine
 10
543.80574191473761
 20
408.72470822686688
 30
0.0
 11
534.07991189443283
 21
418.45053824717172
 31
0.0
  0
LINE
  5
7D
100
AcDbEntity
  8
0
  6
Continuous
 62
               7
100
AcDbLine
 10
550.87680972660314
 20
408.72470822686688
 30
0.0
 11
538.87680972660314
 21
420.72470822686688
 31
0.0
  0
LINE
  5
7E
100
AcDbEntity
  8
0
  6
Continuous
 62
               7
100
AcDbLine
 10
557.94787753846867
 20
408.72470822686688
 30
0.0
 11
545.94787753846867
 21
420.72470822686688
 31
0.0
  0
LINE
  5
7F
100
AcDbEntity
  8
0
  6
Continuous
 62
               7
100
AcDbLine
 10
565.01894535033421
 20
408.72470822686688
 30
0.0
 11
553.01894535033421
 21
420.72470822686688
 31
0.0
  0
LINE
  5
80
100
AcDbEntity
  8
0
  6
Continuous
 62
               7
100
AcDbLine
 10
572.09001316219951
 20
408.72470822686688
 30
0.0
 11
560.09001316219951
 21
420.72470822686688
 31
0.0
  0
LINE
  5
81
100
AcDbEntity
  8
0
  6
Continuous
 62
               7
100
AcDbLine
 10
579.16108097406504
 20
408.72470822686688
 30
0.0
 11
567.16108097406504
 21
420.72470822686688
 31
0.0
  0
LINE
  5
82
100
AcDbEntity
  8
0
  6
Continuous
 62
               7
100
AcDbLine
 10
586.23214878593058
 20
408.72470822686688
 30
0.0
 11
574.23214878593058
 21
420.72470822686688
 31
0.0
  0
LINE
  5
83
100
AcDbEntity
  8
0
  6
Continuous
 62
               7
100
AcDbLine
 10
593.30321659779611
 20
408.72470822686688
 30
0.0
 11
581.30321659779611
 21
420.72470822686688
 31
0.0
  0
LINE
  5
84
100
AcDbEntity
  8
0
  6
Continuous
 62
               7
100
AcDbLine
 10
600.37428440966141
 20
408.72470822686688
 30
0.0
 11
588.37428440966141
 21
420.72470822686688
 31
0.0
  0
LINE
  5
85
100
AcDbEntity
  8
0
  6
Continuous
 62
               7
100
AcDbLine
 10
607.44535222152695
 20
408.72470822686688
 30
0.0
 11
595.44535222152695
 21
420.72470822686688
 31
0.0
  0
LINE
  5
86
100
AcDbEntity
  8
0
  6
Continuous
 62
               7
100
AcDbLine
 10
614.51642003339248
 20
408.72470822686688
 30
0.0
 11
602.51642003339248
 21
420.72470822686688
 31
0.0
  0
LINE
  5
87
100
AcDbEntity
  8
0
  6
Continuous
 62
               7
100
AcDbLine
 10
621.58748784525801
 20
408.72470822686688
 30
0.0
 11
609.58748784525801
 21
420.72470822686688
 31
0.0
  0
LINE
  5
88
100
AcDbEntity
  8
0
  6
Continuous
 62
               7
100
AcDbLine
 10
628.65855565712332
 20
408.72470822686688
 30
0.0
 11
616.65855565712332
 21
420.72470822686688
 31
0.0
  0
LINE
  5
89
100
AcDbEntity
  8
0
  6
Continuous
 62
               7
100
AcDbLine
 10
635.72962346898885
 20
408.72470822686688
 30
0.0
 11
623.72962346898885
 21
420.72470822686688
 31
0.0
  0
LINE
  5
8A
100
AcDbEntity
  8
0
  6
Continuous
 62
               7
100
AcDbLine
 10
642.80069128085427
 20
408.72470822686688
 30
0.0
 11
630.80069128085438
 21
420.72470822686688
 31
0.0
  0
LINE
  5
8B
100
AcDbEntity
  8
0
  6
Continuous
 62
               7
100
AcDbLine
 10
649.8717590927198
 20
408.72470822686688
 30
0.0
 11
637.8717590927198
 21
420.72470822686688
 31
0.0
  0
LINE
  5
8C
100
AcDbEntity
  8
0
  6
Continuous
 62
               7
100
AcDbLine
 10
656.94282690458533
 20
408.72470822686688
 30
0.0
 11
644.94282690458533
 21
420.72470822686688
 31
0.0
  0
LINE
  5
8D
100
AcDbEntity
  8
0
  6
Continuous
 62
               7
100
AcDbLine
 10
664.01389471645075
 20
408.72470822686688
 30
0.0
 11
652.01389471645075
 21
420.72470822686688
 31
0.0
  0
LINE
  5
8E
100
AcDbEntity
  8
0
  6
Continuous
 62
               7
100
AcDbLine
 10
671.08496252831617
 20
408.72470822686688
 30
0.0
 11
659.08496252831617
 21
420.72470822686688
 31
0.0
  0
LINE
  5
8F
100
AcDbEntity
  8
0
  6
Continuous
 62
               7
100
AcDbLine
 10
678.1560303401817
 20
408.72470822686688
 30
0.0
 11
666.1560303401817
 21
420.72470822686688
 31
0.0
  0
LINE
  5
90
100
AcDbEntity
  8
0
  6
Continuous
 62
               7
100
AcDbLine
 10
685.22709815204723
 20
408.72470822686688
 30
0.0
 11
673.22709815204723
 21
420.72470822686688
 31
0.0
  0
LINE
  5
91
100
AcDbEntity
  8
0
  6
Continuous
 62
               7
100
AcDbLine
 10
692.29816596391265
 20
408.72470822686688
 30
0.0
 11
680.29816596391265
 21
420.72470822686688
 31
0.0
  0
LINE
  5
92
100
AcDbEntity
  8
0
  6
Continuous
 62
               7
100
AcDbLine
 10
699.36923377577807
 20
408.72470822686688
 30
0.0
 11
687.36923377577807
 21
420.72470822686688
 31
0.0
  0
LINE
  5
93
100
AcDbEntity
  8
0
  6
Continuous
 62
               7
100
AcDbLine
 10
706.4403015876436
 20
408.72470822686688
 30
0.0
 11
694.4403015876436
 21
420.72470822686688
 31
0.0
  0
LINE
  5
94
100
AcDbEntity
  8
0
  6
Continuous
 62
               7
100
AcDbLine
 10
713.51136939950914
 20
408.72470822686688
 30
0.0
 11
701.51136939950914
 21
420.72470822686688
 31
0.0
  0
LINE
  5
95
100
AcDbEntity
  8
0
  6
Continuous
 62
               7
100
AcDbLine
 10
720.58243721137455
 20
408.72470822686688
 30
0.0
 11
708.58243721137455
 21
420.72470822686688
 31
0.0
  0
LINE
  5
96
100
AcDbEntity
  8
0
  6
Continuous
 62
               7
100
AcDbLine
 10
727.65350502324009
 20
408.72470822686688
 30
0.0
 11
715.65350502324009
 21
420.72470822686688
 31
0.0
  0
LINE
  5
97
100
AcDbEntity
  8
0
  6
Continuous
 62
               7
100
AcDbLine
 10
734.7245728351055
 20
408.72470822686688
 30
0.0
 11
722.7245728351055
 21
420.72470822686688
 31
0.0
  0
LINE
  5
98
100
AcDbEntity
  8
0
  6
Continuous
 62
               7
100
AcDbLine
 10
741.79564064697104
 20
408.72470822686688
 30
0.0
 11
729.79564064697104
 21
420.72470822686688
 31
0.0
  0
LINE
  5
99
100
AcDbEntity
  8
0
  6
Continuous
 62
               7
100
AcDbLine
 10
748.86670845883646
 20
408.72470822686688
 30
0.0
 11
736.86670845883646
 21
420.72470822686688
 31
0.0
  0
LINE
  5
9A
100
AcDbEntity
  8
0
  6
Continuous
 62
               7
100
AcDbLine
 10
755.93777627070199
 20
408.72470822686688
 30
0.0
 11
743.93777627070199
 21
420.72470822686688
 31
0.0
  0
LINE
  5
9B
100
AcDbEntity
  8
0
  6
Continuous
 62
               7
100
AcDbLine
 10
763.00884408256741
 20
408.72470822686688
 30
0.0
 11
751.00884408256741
 21
420.72470822686688
 31
0.0
  0
LINE
  5
9C
100
AcDbEntity
  8
0
  6
Continuous
 62
               7
100
AcDbLine
 10
770.07991189443294
 20
408.72470822686688
 30
0.0
 11
758.07991189443294
 21
420.72470822686688
 31
0.0
  0
LINE
  5
9D
100
AcDbEntity
  8
0
  6
Continuous
 62
               7
100
AcDbLine
 10
777.15097970629836
 20
408.72470822686688
 30
0.0
 11
765.15097970629836
 21
420.72470822686688
 31
0.0
  0
LINE
  5
9E
100
AcDbEntity
  8
0
  6
Continuous
 62
               7
100
AcDbLine
 10
777.18998003768581
 20
415.75677570734501
 30
0.0
 11
772.22204751816389
 21
420.72470822686688
 31
0.0
  0
LINE
  5
9F
100
AcDbEntity
  8
0
  6
Continuous
 62
               7
100
AcDbLine
 10
812.50631876562579
 20
408.72470822686688
 30
0.0
 11
809.37110219944225
 21
411.85992479305048
 31
0.0
  0
LINE
  5
A0
100
AcDbEntity
  8
0
  6
Continuous
 62
               7
100
AcDbLine
 10
819.57738657749132
 20
408.72470822686688
 30
0.0
 11
809.37110219944225
 21
418.93099260491601
 31
0.0
  0
LINE
  5
A1
100
AcDbEntity
  8
0
  6
Continuous
 62
               7
100
AcDbLine
 10
826.64845438935686
 20
408.72470822686688
 30
0.0
 11
814.64845438935686
 21
420.72470822686688
 31
0.0
  0
LINE
  5
A2
100
AcDbEntity
  8
0
  6
Continuous
 62
               7
100
AcDbLine
 10
833.71952220122216
 20
408.72470822686688
 30
0.0
 11
821.71952220122216
 21
420.72470822686688
 31
0.0
  0
LINE
  5
A3
100
AcDbEntity
  8
0
  6
Continuous
 62
               7
100
AcDbLine
 10
840.79059001308769
 20
408.72470822686688
 30
0.0
 11
828.79059001308769
 21
420.72470822686688
 31
0.0
  0
LINE
  5
A4
100
AcDbEntity
  8
0
  6
Continuous
 62
               7
100
AcDbLine
 10
847.86165782495323
 20
408.72470822686688
 30
0.0
 11
835.86165782495323
 21
420.72470822686688
 31
0.0
  0
LINE
  5
A5
100
AcDbEntity
  8
0
  6
Continuous
 62
               7
100
AcDbLine
 10
854.93272563681876
 20
408.72470822686688
 30
0.0
 11
842.93272563681876
 21
420.72470822686688
 31
0.0
  0
LINE
  5
A6
100
AcDbEntity
  8
0
  6
Continuous
 62
               7
100
AcDbLine
 10
862.00379344868429
 20
408.72470822686688
 30
0.0
 11
850.00379344868406
 21
420.72470822686688
 31
0.0
  0
LINE
  5
A7
100
AcDbEntity
  8
0
  6
Continuous
 62
               7
100
AcDbLine
 10
869.0748612605496
 20
408.72470822686688
 30
0.0
 11
857.0748612605496
 21
420.72470822686688
 31
0.0
  0
LINE
  5
A8
100
AcDbEntity
  8
0
  6
Continuous
 62
               7
100
AcDbLine
 10
876.14592907241513
 20
408.72470822686688
 30
0.0
 11
864.14592907241513
 21
420.72470822686688
 31
0.0
  0
LINE
  5
A9
100
AcDbEntity
  8
0
  6
Continuous
 62
               7
100
AcDbLine
 10
883.21699688428066
 20
408.72470822686688
 30
0.0
 11
871.21699688428066
 21
420.72470822686688
 31
0.0
  0
LINE
  5
AA
100
AcDbEntity
  8
0
  6
Continuous
 62
               7
100
AcDbLine
 10
890.28806469614619
 20
408.72470822686688
 30
0.0
 11
878.28806469614619
 21
420.72470822686688
 31
0.0
  0
LINE
  5
AB
100
AcDbEntity
  8
0
  6
Continuous
 62
               7
100
AcDbLine
 10
897.35913250801173
 20
408.72470822686688
 30
0.0
 11
885.3591325080115
 21
420.72470822686688
 31
0.0
  0
LINE
  5
AC
100
AcDbEntity
  8
0
  6
Continuous
 62
               4
100
AcDbLine
 10
682.55512050850086
 20
530.72470822686705
 30
0.0
 11
522.83588190153944
 21
530.72470822686705
 31
0.0
  0
LINE
  5
AD
100
AcDbEntity
  8
0
  6
Continuous
 62
               4
100
AcDbLine
 10
673.31751620146679
 20
546.72470822686705
 30
0.0
 11
522.83588190153944
 21
546.72470822686705
 31
0.0
  0
LINE
  5
AE
100
AcDbEntity
  8
0
  6
Continuous
 62
               4
100
AcDbLine
 10
664.07991189443283
 20
562.72470822686705
 30
0.0
 11
522.83588190153944
 21
562.72470822686705
 31
0.0
  0
LINE
  5
AF
100
AcDbEntity
  8
0
  6
Continuous
 62
               6
100
AcDbLine
 10
884.07991189443283
 20
408.72470822686688
 30
0.0
 11
884.07991189443283
 21
308.72470822686688
 31
0.0
  0
LINE
  5
B0
100
AcDbEntity
  8
0
  6
Continuous
 62
               6
100
AcDbLine
 10
534.07991189443283
 20
308.72470822686688
 30
0.0
 11
884.07991189443283
 21
308.72470822686688
 31
0.0
  0
LINE
  5
B1
100
AcDbEntity
  8
0
  6
Continuous
 62
               6
100
AcDbLine
 10
534.07991189443283
 20
328.72470822686688
 30
0.0
 11
884.07991189443283
 21
328.72470822686688
 31
0.0
  0
LINE
  5
B2
100
AcDbEntity
  8
0
  6
Continuous
 62
               6
100
AcDbLine
 10
534.07991189443283
 20
388.72470822686688
 30
0.0
 11
884.07991189443283
 21
388.72470822686688
 31
0.0
  0
LINE
  5
B3
100
AcDbEntity
  8
0
  6
DASHED
 62
               6
100
AcDbLine
 10
534.07991189443283
 20
406.42470822686687
 30
0.0
 11
884.07991189443283
 21
406.42470822686687
 31
0.0
  0
LINE
  5
B4
100
AcDbEntity
  8
0
  6
DASHED
 62
               6
100
AcDbLine
 10
534.07991189443283
 20
311.02470822686689
 30
0.0
 11
884.07991189443283
 21
311.02470822686689
 31
0.0
  0
LINE
  5
B5
100
AcDbEntity
  8
0
  6
Continuous
 62
               2
100
AcDbLine
 10
914.07991189443305
 20
445.72470822686688
 30
0.0
 11
914.07991189443305
 21
545.72470822686705
 31
0.0
  0
LINE
  5
B6
100
AcDbEntity
  8
0
  6
Continuous
 62
               2
100
AcDbLine
 10
914.07991189443305
 20
545.72470822686705
 30
0.0
 11
931.07991189443305
 21
545.72470822686705
 31
0.0
  0
LINE
  5
B7
100
AcDbEntity
  8
0
  6
Continuous
 62
               7
100
AcDbLine
 10
919.07991189443305
 20
565.72470822686705
 30
0.0
 11
934.07991189443305
 21
565.72470822686705
 31
0.0
  0
LINE
  5
B8
100
AcDbEntity
  8
0
  6
Continuous
 62
               7
100
AcDbLine
 10
919.07991189443305
 20
565.72470822686705
 30
0.0
 11
919.07991189443305
 21
595.72470822686705
 31
0.0
  0
LINE
  5
B9
100
AcDbEntity
  8
0
  6
Continuous
 62
               2
100
AcDbLine
 10
914.07991189443305
 20
445.72470822686688
 30
0.0
 11
864.82154178857172
 21
440.79887121628082
 31
0.0
  0
LINE
  5
BA
100
AcDbEntity
  8
0
  6
Continuous
 62
               2
100
AcDbLine
 10
874.0418588753505
 20
438.35315079939039
 30
0.0
 11
864.8317113234491
 21
439.15893429958282
 31
0.0
  0
LINE
  5
BB
100
AcDbEntity
  8
0
  6
Continuous
 62
               4
100
AcDbLine
 10
872.68519682868532
 20
439.22470822686688
 30
0.0
 11
928.42459257526616
 21
439.22470822686688
 31
0.0
  0
LINE
  5
BC
100
AcDbEntity
  8
0
  6
Continuous
 62
               4
100
AcDbLine
 10
864.57991189443305
 20
439.9338287732615
 30
0.0
 11
872.68519682868532
 21
439.22470822686688
 31
0.0
  0
LINE
  5
BD
100
AcDbEntity
  8
0
  6
Continuous
 62
               6
100
AcDbLine
 10
912.7636780785067
 20
439.22470822686688
 30
0.0
 11
911.26367807850647
 21
437.72470822686688
 31
0.0
  0
LINE
  5
BE
100
AcDbEntity
  8
0
  6
Continuous
 62
               6
100
AcDbLine
 10
910.64235773494693
 20
439.22470822686688
 30
0.0
 11
909.14235773494693
 21
437.72470822686688
 31
0.0
  0
LINE
  5
BF
100
AcDbEntity
  8
0
  6
Continuous
 62
               6
100
AcDbLine
 10
908.52103739138715
 20
439.22470822686688
 30
0.0
 11
907.02103739138715
 21
437.72470822686688
 31
0.0
  0
LINE
  5
C0
100
AcDbEntity
  8
0
  6
Continuous
 62
               6
100
AcDbLine
 10
906.39971704782761
 20
439.22470822686688
 30
0.0
 11
904.89971704782761
 21
437.72470822686688
 31
0.0
  0
LINE
  5
C1
100
AcDbEntity
  8
0
  6
Continuous
 62
               6
100
AcDbLine
 10
904.27839670426783
 20
439.22470822686688
 30
0.0
 11
902.77839670426783
 21
437.72470822686688
 31
0.0
  0
LINE
  5
C2
100
AcDbEntity
  8
0
  6
Continuous
 62
               6
100
AcDbLine
 10
902.15707636070829
 20
439.22470822686688
 30
0.0
 11
900.65707636070829
 21
437.72470822686688
 31
0.0
  0
LINE
  5
C3
100
AcDbEntity
  8
0
  6
Continuous
 62
               6
100
AcDbLine
 10
900.03575601714874
 20
439.22470822686688
 30
0.0
 11
898.53575601714874
 21
437.72470822686688
 31
0.0
  0
LINE
  5
C4
100
AcDbEntity
  8
0
  6
Continuous
 62
               6
100
AcDbLine
 10
897.91443567358897
 20
439.22470822686688
 30
0.0
 11
896.41443567358897
 21
437.72470822686688
 31
0.0
  0
LINE
  5
C5
100
AcDbEntity
  8
0
  6
Continuous
 62
               6
100
AcDbLine
 10
895.79311533002942
 20
439.22470822686688
 30
0.0
 11
894.29311533002942
 21
437.72470822686688
 31
0.0
  0
LINE
  5
C6
100
AcDbEntity
  8
0
  6
Continuous
 62
               6
100
AcDbLine
 10
893.67179498646965
 20
439.22470822686688
 30
0.0
 11
892.17179498646965
 21
437.72470822686688
 31
0.0
  0
LINE
  5
C7
100
AcDbEntity
  8
0
  6
Continuous
 62
               6
100
AcDbLine
 10
891.5504746429101
 20
439.22470822686688
 30
0.0
 11
890.0504746429101
 21
437.72470822686688
 31
0.0
  0
LINE
  5
C8
100
AcDbEntity
  8
0
  6
Continuous
 62
               6
100
AcDbLine
 10
889.42915429935033
 20
439.22470822686688
 30
0.0
 11
887.92915429935033
 21
437.72470822686688
 31
0.0
  0
LINE
  5
C9
100
AcDbEntity
  8
0
  6
Continuous
 62
               6
100
AcDbLine
 10
887.30783395579078
 20
439.22470822686688
 30
0.0
 11
885.80783395579078
 21
437.72470822686688
 31
0.0
  0
LINE
  5
CA
100
AcDbEntity
  8
0
  6
Continuous
 62
               6
100
AcDbLine
 10
885.18651361223124
 20
439.22470822686688
 30
0.0
 11
883.68651361223101
 21
437.72470822686688
 31
0.0
  0
LINE
  5
CB
100
AcDbEntity
  8
0
  6
Continuous
 62
               6
100
AcDbLine
 10
883.06519326867146
 20
439.22470822686688
 30
0.0
 11
881.56519326867146
 21
437.72470822686688
 31
0.0
  0
LINE
  5
CC
100
AcDbEntity
  8
0
  6
Continuous
 62
               6
100
AcDbLine
 10
880.94387292511192
 20
439.22470822686688
 30
0.0
 11
879.44387292511192
 21
437.72470822686688
 31
0.0
  0
LINE
  5
CD
100
AcDbEntity
  8
0
  6
Continuous
 62
               6
100
AcDbLine
 10
878.82255258155215
 20
439.22470822686688
 30
0.0
 11
877.32255258155215
 21
437.72470822686688
 31
0.0
  0
LINE
  5
CE
100
AcDbEntity
  8
0
  6
Continuous
 62
               6
100
AcDbLine
 10
876.7012322379926
 20
439.22470822686688
 30
0.0
 11
875.2012322379926
 21
437.72470822686688
 31
0.0
  0
LINE
  5
CF
100
AcDbEntity
  8
0
  6
Continuous
 62
               7
100
AcDbLine
 10
934.07991189443305
 20
288.72470822686688
 30
0.0
 11
934.07991189443305
 21
595.72470822686705
 31
0.0
  0
LINE
  5
D0
100
AcDbEntity
  8
0
  6
Continuous
 62
               2
100
AcDbLine
 10
931.07991189443305
 20
545.72470394713469
 30
0.0
 11
931.07991189443305
 21
564.22470822686705
 31
0.0
  0
LINE
  5
D1
100
AcDbEntity
  8
0
  6
Continuous
 62
               7
100
AcDbLine
 10
920.58748784525824
 20
432.72470822686688
 30
0.0
 11
908.58748784525801
 21
420.72470822686688
 31
0.0
  0
LINE
  5
D2
100
AcDbEntity
  8
0
  6
Continuous
 62
               7
100
AcDbLine
 10
913.51642003339271
 20
432.72470822686688
 30
0.0
 11
901.51642003339248
 21
420.72470822686688
 31
0.0
  0
LINE
  5
D3
100
AcDbEntity
  8
0
  6
Continuous
 62
               7
100
AcDbLine
 10
906.44535222152717
 20
432.72470822686688
 30
0.0
 11
894.44535222152717
 21
420.72470822686688
 31
0.0
  0
LINE
  5
D4
100
AcDbEntity
  8
0
  6
Continuous
 62
               7
100
AcDbLine
 10
904.43020031987703
 20
408.72470822686688
 30
0.0
 11
892.43020031987703
 21
420.72470822686688
 31
0.0
  0
LINE
  5
D5
100
AcDbEntity
  8
0
  6
Continuous
 62
               7
100
AcDbLine
 10
911.50126813174279
 20
408.72470822686688
 30
0.0
 11
899.50126813174256
 21
420.72470822686688
 31
0.0
  0
LINE
  5
D6
100
AcDbEntity
  8
0
  6
Continuous
 62
               7
100
AcDbLine
 10
918.57233594360832
 20
408.72470822686688
 30
0.0
 11
906.5723359436081
 21
420.72470822686688
 31
0.0
  0
LINE
  5
D7
100
AcDbEntity
  8
0
  6
Continuous
 62
               7
100
AcDbLine
 10
933.07991189443305
 20
424.00392884044521
 30
0.0
 11
929.80069128085461
 21
420.72470822686688
 31
0.0
  0
LINE
  5
D8
100
AcDbEntity
  8
0
  6
Continuous
 62
               7
100
AcDbLine
 10
933.07991189443305
 20
431.07499665231069
 30
0.0
 11
922.72962346898908
 21
420.72470822686688
 31
0.0
  0
LINE
  5
D9
100
AcDbEntity
  8
0
  6
Continuous
 62
               7
100
AcDbLine
 10
927.65855565712377
 20
432.72470822686688
 30
0.0
 11
915.65855565712377
 21
420.72470822686688
 31
0.0
  0
LINE
  5
DA
100
AcDbEntity
  8
0
  6
Continuous
 62
               7
100
AcDbLine
 10
925.64340375547363
 20
408.72470822686688
 30
0.0
 11
913.64340375547363
 21
420.72470822686688
 31
0.0
  0
LINE
  5
DB
100
AcDbEntity
  8
0
  6
Continuous
 62
               7
100
AcDbLine
 10
932.71447156733939
 20
408.72470822686688
 30
0.0
 11
920.71447156733916
 21
420.72470822686688
 31
0.0
  0
LINE
  5
DC
100
AcDbEntity
  8
0
  6
Continuous
 62
               7
100
AcDbLine
 10
933.07991189443305
 20
415.43033571163858
 30
0.0
 11
927.78553937920469
 21
420.72470822686688
 31
0.0
  0
LINE
  5
DD
100
AcDbEntity
  8
0
  6
Continuous
 62
               7
100
AcDbLine
 10
929.07991189443305
 20
565.72470822686705
 30
0.0
 11
929.07991189443305
 21
573.72470822686705
 31
0.0
  0
LINE
  5
DE
100
AcDbEntity
  8
0
  6
Continuous
 62
               6
100
AcDbLine
 10
922.56519326867169
 20
545.72470822686705
 30
0.0
 11
919.80263071800005
 21
548.48727077753858
 31
0.0
  0
LINE
  5
DF
100
AcDbEntity
  8
0
  6
Continuous
 62
               6
100
AcDbLine
 10
926.80783395579078
 20
545.72470822686705
 30
0.0
 11
920.3910363888192
 21
552.14150579383875
 31
0.0
  0
LINE
  5
E0
100
AcDbEntity
  8
0
  6
Continuous
 62
               6
100
AcDbLine
 10
929.07991189443305
 20
547.69527097534422
 30
0.0
 11
920.57661774463145
 21
556.19856512514571
 31
0.0
  0
LINE
  5
E1
100
AcDbEntity
  8
0
  6
Continuous
 62
               6
100
AcDbLine
 10
929.07991189443305
 20
551.93791166246353
 30
0.0
 11
920.19673455663974
 21
560.82108900025673
 31
0.0
  0
LINE
  5
E2
100
AcDbEntity
  8
0
  6
Continuous
 62
               6
100
AcDbLine
 10
929.07991189443305
 20
556.18055234958285
 30
0.0
 11
919.53575601714874
 21
565.72470822686705
 31
0.0
  0
LINE
  5
E3
100
AcDbEntity
  8
0
  6
Continuous
 62
               6
100
AcDbLine
 10
929.07991189443305
 20
560.42319303670206
 30
0.0
 11
923.77839670426806
 21
565.72470822686705
 31
0.0
  0
LINE
  5
E4
100
AcDbEntity
  8
0
  6
Continuous
 62
               6
100
AcDbLine
 10
929.07991189443305
 20
564.66583372382138
 30
0.0
 11
928.02103739138738
 21
565.72470822686705
 31
0.0
  0
LINE
  5
E5
100
AcDbEntity
  8
0
  6
Continuous
 62
               6
100
AcDbLine
 10
929.07991189443305
 20
547.99678616550909
 30
0.0
 11
926.80783395579078
 21
545.72470822686705
 31
0.0
  0
LINE
  5
E6
100
AcDbEntity
  8
0
  6
Continuous
 62
               6
100
AcDbLine
 10
929.07991189443305
 20
552.23942685262841
 30
0.0
 11
922.56519326867146
 21
545.72470822686705
 31
0.0
  0
LINE
  5
E7
100
AcDbEntity
  8
0
  6
Continuous
 62
               6
100
AcDbLine
 10
929.07991189443305
 20
556.48206753974773
 30
0.0
 11
919.38803708757814
 21
546.79019273289271
 31
0.0
  0
LINE
  5
E8
100
AcDbEntity
  8
0
  6
Continuous
 62
               6
100
AcDbLine
 10
929.07991189443305
 20
560.72470822686705
 30
0.0
 11
920.37831048423368
 21
552.02310681666779
 31
0.0
  0
LINE
  5
E9
100
AcDbEntity
  8
0
  6
Continuous
 62
               6
100
AcDbLine
 10
929.07991189443305
 20
564.96734891398626
 30
0.0
 11
920.5719919344433
 21
556.45942895399651
 31
0.0
  0
LINE
  5
EA
100
AcDbEntity
  8
0
  6
Continuous
 62
               6
100
AcDbLine
 10
925.59463052019441
 20
565.72470822686705
 30
0.0
 11
920.25921036053455
 21
560.38928806720708
 31
0.0
  0
LINE
  5
EB
100
AcDbEntity
  8
0
  6
Continuous
 62
               6
100
AcDbLine
 10
921.35198983307509
 20
565.72470822686705
 30
0.0
 11
919.57347154624949
 21
563.94618994004134
 31
0.0
  0
LINE
  5
EC
100
AcDbEntity
  8
0
  6
Continuous
 62
               4
100
AcDbLine
 10
911.69182268958525
 20
469.60560027534518
 30
0.0
 11
913.48288958030707
 21
451.6949313681269
 31
0.0
  0
LINE
  5
ED
100
AcDbEntity
  8
0
  6
Continuous
 62
               4
100
AcDbLine
 10
861.61396077501013
 20
464.59781408388767
 30
0.0
 11
863.48697684660328
 21
445.86765336795571
 31
0.0
  0
LINE
  5
EE
100
AcDbEntity
  8
0
  6
Continuous
 62
               4
100
AcDbLine
 10
911.99033384664813
 20
466.62048870471517
 30
0.0
 11
861.912471932073
 21
461.61270251325772
 31
0.0
  0
LINE
  5
EF
100
AcDbEntity
  8
0
  6
Continuous
 62
               4
100
AcDbLine
 10
890.07991189443305
 20
445.72470822686688
 30
0.0
 11
908.07991189443305
 21
445.72470822686688
 31
0.0
  0
LINE
  5
F0
100
AcDbEntity
  8
0
  6
Continuous
 62
               4
100
AcDbLine
 10
890.07991189443305
 20
545.72470822686705
 30
0.0
 11
908.07991189443305
 21
545.72470822686705
 31
0.0
  0
LINE
  5
F1
100
AcDbEntity
  8
0
  6
Continuous
 62
               4
100
AcDbLine
 10
893.07991189443305
 20
445.72470822686688
 30
0.0
 11
893.07991189443305
 21
545.72470822686705
 31
0.0
  0
LINE
  5
F2
100
AcDbEntity
  8
0
  6
Continuous
 62
               4
100
AcDbLine
 10
890.07991189443305
 20
565.72470822686705
 30
0.0
 11
913.07991189443305
 21
565.72470822686705
 31
0.0
  0
LINE
  5
F3
100
AcDbEntity
  8
0
  6
Continuous
 62
               4
100
AcDbLine
 10
893.07991189443305
 20
545.72470822686705
 30
0.0
 11
893.07991189443305
 21
565.72470822686705
 31
0.0
  0
LINE
  5
F4
100
AcDbEntity
  8
0
  6
Continuous
 62
               7
100
AcDbLine
 10
927.57991189443305
 20
575.22470822686705
 30
0.0
 11
927.57991189443305
 21
595.72470822686705
 31
0.0
  0
LINE
  5
F5
100
AcDbEntity
  8
0
  6
Continuous
 62
               6
100
AcDbLine
 10
921.35198983307509
 20
565.72470822686705
 30
0.0
 11
919.57347154624949
 21
563.94618994004134
 31
0.0
  0
LINE
  5
F6
100
AcDbEntity
  8
0
  6
Continuous
 62
               4
100
AcDbLine
 10
881.89899953825966
 20
439.22470822686688
 30
0.0
 11
859.71629593456305
 21
477.64627791771068
 31
0.0
  0
LINE
  5
F7
100
AcDbEntity
  8
0
  6
Continuous
 62
               4
100
AcDbLine
 10
914.07991189443305
 20
482.14598702989832
 30
0.0
 11
880.25947144257907
 21
540.72470822686694
 31
0.0
  0
LINE
  5
F8
100
AcDbEntity
  8
0
  6
Continuous
 62
               4
100
AcDbLine
 10
920.57991189443305
 20
555.72470822686705
 30
0.0
 11
903.2594038187442
 21
585.72470822686705
 31
0.0
  0
LINE
  5
F9
100
AcDbEntity
  8
0
  6
Continuous
 62
               4
100
AcDbLine
 10
903.2594038187442
 20
585.72470822686705
 30
0.0
 11
794.05861727536671
 21
585.72470822686705
 31
0.0
  0
LINE
  5
FA
100
AcDbEntity
  8
0
  6
Continuous
 62
               4
100
AcDbLine
 10
920.57991189443305
 20
555.72470822686705
 30
0.0
 11
914.79482340725417
 21
562.6191082149378
 31
0.0
  0
LINE
  5
FB
100
AcDbEntity
  8
0
  6
Continuous
 62
               4
100
AcDbLine
 10
920.57991189443305
 20
555.72470822686705
 30
0.0
 11
917.50173060450197
 21
564.18194181394017
 31
0.0
  0
LINE
  5
FC
100
AcDbEntity
  8
0
  6
Continuous
 62
               4
100
AcDbLine
 10
914.07991189443305
 20
482.14598702989832
 30
0.0
 11
908.29482340725417
 21
489.04038701796912
 31
0.0
  0
LINE
  5
FD
100
AcDbEntity
  8
0
  6
Continuous
 62
               4
100
AcDbLine
 10
914.07991189443305
 20
482.14598702989832
 30
0.0
 11
911.00173060450197
 21
490.60322061697138
 31
0.0
  0
LINE
  5
FE
100
AcDbEntity
  8
0
  6
Continuous
 62
               4
100
AcDbLine
 10
881.89899953825966
 20
439.22470822686688
 30
0.0
 11
876.11391105108078
 21
446.11910821493768
 31
0.0
  0
LINE
  5
FF
100
AcDbEntity
  8
0
  6
Continuous
 62
               4
100
AcDbLine
 10
881.89899953825966
 20
439.22470822686688
 30
0.0
 11
878.82081824832858
 21
447.68194181394011
 31
0.0
  0
LINE
  5
100
100
AcDbEntity
  8
0
  6
Continuous
 62
               4
100
AcDbLine
 10
749.52775173449743
 20
414.72470822686688
 30
0.0
 11
664.07991189443283
 21
562.72470822686705
 31
0.0
  0
LINE
  5
101
100
AcDbEntity
  8
0
  6
Continuous
 62
               4
100
AcDbLine
 10
859.71629593456305
 20
477.64627791771068
 30
0.0
 11
723.0185109075577
 21
477.64627791771068
 31
0.0
  0
LINE
  5
102
100
AcDbEntity
  8
0
  6
Continuous
 62
               4
100
AcDbLine
 10
880.25947144257907
 20
540.72470822686694
 30
0.0
 11
798.41280479398961
 21
540.72470822686694
 31
0.0
  0
LINE
  5
103
100
AcDbEntity
  8
0
  6
Continuous
 62
               6
100
AcDbLine
 10
934.07991189443305
 20
529.90830739666262
 30
0.0
 11
984.07991189443305
 21
579.90830739666262
 31
0.0
  0
LINE
  5
104
100
AcDbEntity
  8
0
  6
Continuous
 62
               6
100
AcDbLine
 10
934.07991189443305
 20
522.8372395847972
 30
0.0
 11
984.07991189443305
 21
572.8372395847972
 31
0.0
  0
LINE
  5
105
100
AcDbEntity
  8
0
  6
Continuous
 62
               6
100
AcDbLine
 10
934.07991189443305
 20
515.76617177293167
 30
0.0
 11
984.07991189443305
 21
565.76617177293167
 31
0.0
  0
LINE
  5
106
100
AcDbEntity
  8
0
  6
Continuous
 62
               6
100
AcDbLine
 10
934.07991189443305
 20
360.20267991189121
 30
0.0
 11
984.07991189443305
 21
410.20267991189121
 31
0.0
  0
LINE
  5
107
100
AcDbEntity
  8
0
  6
Continuous
 62
               6
100
AcDbLine
 10
934.07991189443305
 20
353.13161210002568
 30
0.0
 11
984.07991189443305
 21
403.13161210002568
 31
0.0
  0
LINE
  5
108
100
AcDbEntity
  8
0
  6
Continuous
 62
               6
100
AcDbLine
 10
934.07991189443305
 20
346.06054428816032
 30
0.0
 11
984.07991189443305
 21
396.06054428816032
 31
0.0
  0
LINE
  5
109
100
AcDbEntity
  8
0
  6
Continuous
 62
               4
100
AcDbLine
 10
789.57991189443283
 20
432.72470822686688
 30
0.0
 11
789.57991189443283
 21
420.72470822686688
 31
0.0
  0
LINE
  5
10A
100
AcDbEntity
  8
0
  6
Continuous
 62
               4
100
AcDbLine
 10
789.57991189443283
 20
420.72470822686688
 30
0.0
 11
789.57991189443283
 21
408.72470822686688
 31
0.0
  0
LINE
  5
10B
100
AcDbEntity
  8
0
  6
Continuous
 62
               4
100
AcDbLine
 10
805.57991189443283
 20
408.72470822686688
 30
0.0
 11
805.57991189443283
 21
437.72470822686688
 31
0.0
  0
LINE
  5
10C
100
AcDbEntity
  8
0
  6
Continuous
 62
               4
100
AcDbLine
 10
789.57991189443283
 20
432.72470822686688
 30
0.0
 11
789.57991189443283
 21
437.72470822686688
 31
0.0
  0
LINE
  5
10D
100
AcDbEntity
  8
0
  6
Continuous
 62
               4
100
AcDbLine
 10
789.57991189443283
 20
437.72470822686688
 30
0.0
 11
789.57991189443283
 21
443.62470342285138
 31
0.0
  0
LINE
  5
10E
100
AcDbEntity
  8
0
  6
Continuous
 62
               3
100
AcDbLine
 10
933.07991189443305
 20
408.72470822686688
 30
0.0
 11
933.07991189443305
 21
432.72470822686688
 31
0.0
  0
LINE
  5
10F
100
AcDbEntity
  8
0
  6
DASHED
 62
               6
100
AcDbLine
 10
932.57991189443305
 20
434.72470822686688
 30
0.0
 11
932.57991189443305
 21
564.90291917992568
 31
0.0
  0
LINE
  5
110
100
AcDbEntity
  8
0
  6
Continuous
 62
               2
100
AcDbLine
 10
931.07991189443305
 20
437.72470822686688
 30
0.0
 11
931.07991189443305
 21
543.72470822686705
 31
0.0
  0
LINE
  5
111
100
AcDbEntity
  8
0
  6
Continuous
 62
               6
100
AcDbLine
 10
914.88499842206625
 20
439.22470822686688
 30
0.0
 11
913.38499842206625
 21
437.72470822686688
 31
0.0
  0
LINE
  5
112
100
AcDbEntity
  8
0
  6
Continuous
 62
               6
100
AcDbLine
 10
917.00631876562602
 20
439.22470822686688
 30
0.0
 11
915.50631876562602
 21
437.72470822686688
 31
0.0
  0
LINE
  5
113
100
AcDbEntity
  8
0
  6
Continuous
 62
               6
100
AcDbLine
 10
919.12763910918579
 20
439.22470822686688
 30
0.0
 11
917.62763910918557
 21
437.72470822686688
 31
0.0
  0
LINE
  5
114
100
AcDbEntity
  8
0
  6
Continuous
 62
               6
100
AcDbLine
 10
921.24895945274557
 20
439.22470822686688
 30
0.0
 11
919.74895945274534
 21
437.72470822686688
 31
0.0
  0
LINE
  5
115
100
AcDbEntity
  8
0
  6
Continuous
 62
               6
100
AcDbLine
 10
923.37027979630511
 20
439.22470822686688
 30
0.0
 11
921.87027979630511
 21
437.72470822686688
 31
0.0
  0
LINE
  5
116
100
AcDbEntity
  8
0
  6
Continuous
 62
               6
100
AcDbLine
 10
925.49160013986489
 20
439.22470822686688
 30
0.0
 11
923.99160013986489
 21
437.72470822686688
 31
0.0
  0
LINE
  5
117
100
AcDbEntity
  8
0
  6
Continuous
 62
               6
100
AcDbLine
 10
926.2382270524929
 20
439.22470822686688
 30
0.0
 11
926.2382270524929
 21
437.72470822686688
 31
0.0
  0
LINE
  5
118
100
AcDbEntity
  8
0
  6
Continuous
 62
               7
100
AcDbLine
 10
929.87646023922571
 20
552.96123226882105
 30
0.0
 11
929.87646023922525
 21
558.36123226882137
 31
0.0
  0
LINE
  5
119
100
AcDbEntity
  8
0
  6
Continuous
 62
               7
100
AcDbLine
 10
930.37646023922457
 20
560.16123226882087
 30
0.0
 11
930.37646023922503
 21
551.16123226882132
 31
0.0
  0
LINE
  5
11A
100
AcDbEntity
  8
0
  6
Continuous
 62
               7
100
AcDbLine
 10
930.17646023922521
 20
558.66123226882121
 30
0.0
 11
930.37646023922434
 21
558.66123226882144
 31
0.0
  0
LINE
  5
11B
100
AcDbEntity
  8
0
  6
Continuous
 62
               7
100
AcDbLine
 10
930.17646023922543
 20
552.66123226882053
 30
0.0
 11
930.37646023922434
 21
552.66123226882155
 31
0.0
  0
LINE
  5
11C
100
AcDbEntity
  8
0
  6
Continuous
 62
               7
100
AcDbLine
 10
960.22271938589597
 20
557.16123226882246
 30
0.0
 11
961.87646023922571
 21
557.16123226882132
 31
0.0
  0
LINE
  5
11D
100
AcDbEntity
  8
0
  6
Continuous
 62
               7
100
AcDbLine
 10
960.22271938589279
 20
554.16123226882314
 30
0.0
 11
961.87646023922434
 21
554.16123226882189
 31
0.0
  0
LINE
  5
11E
100
AcDbEntity
  8
0
  6
Continuous
 62
               7
100
AcDbLine
 10
930.82991675474136
 20
560.16123226882144
 30
0.0
 11
930.37646023922457
 21
560.16123226882087
 31
0.0
  0
LINE
  5
11F
100
AcDbEntity
  8
0
  6
Continuous
 62
               7
100
AcDbLine
 10
930.82991675474159
 20
551.16123226882178
 30
0.0
 11
930.37646023922503
 21
551.16123226882132
 31
0.0
  0
LINE
  5
120
100
AcDbEntity
  8
0
  6
Continuous
 62
               7
100
AcDbLine
 10
931.87646023922366
 20
558.16123226882178
 30
0.0
 11
949.3764602392248
 21
558.16123226882144
 31
0.0
  0
LINE
  5
121
100
AcDbEntity
  8
0
  6
Continuous
 62
               7
100
AcDbLine
 10
931.87646023922434
 20
553.16123226882121
 30
0.0
 11
949.37646023922525
 21
553.16123226882166
 31
0.0
  0
LINE
  5
122
100
AcDbEntity
  8
0
  6
Continuous
 62
               7
100
AcDbLine
 10
931.50901650484343
 20
559.63100720634725
 30
0.0
 11
931.87646023922366
 21
558.16123226882178
 31
0.0
  0
LINE
  5
123
100
AcDbEntity
  8
0
  6
Continuous
 62
               7
100
AcDbLine
 10
931.5090165048432
 20
551.69145733129619
 30
0.0
 11
931.87646023922434
 21
553.16123226882121
 31
0.0
  0
LINE
  5
124
100
AcDbEntity
  8
0
  6
Continuous
 62
               7
100
AcDbLine
 10
962.42857044099037
 20
558.56560993714447
 30
0.0
 11
962.60221861865625
 21
557.58080218413284
 31
0.0
  0
LINE
  5
125
100
AcDbEntity
  8
0
  6
Continuous
 62
               7
100
AcDbLine
 10
962.60221861865625
 20
553.74166235351095
 30
0.0
 11
954.83847962175605
 21
555.11061900984328
 31
0.0
  0
LINE
  5
126
100
AcDbEntity
  8
0
  6
Continuous
 62
               7
100
AcDbLine
 10
962.60221861865625
 20
557.58080218413284
 30
0.0
 11
954.83847962175696
 21
556.21184552780051
 31
0.0
  0
LINE
  5
127
100
AcDbEntity
  8
0
  6
Continuous
 62
               7
100
AcDbLine
 10
962.42857044099037
 20
552.75685460049817
 30
0.0
 11
962.60221861865625
 21
553.74166235351095
 31
0.0
  0
LINE
  5
128
100
AcDbEntity
  8
0
  6
Continuous
 62
               7
100
AcDbLine
 10
960.77771063380442
 20
559.28994542365717
 30
0.0
 11
954.37646023922503
 21
558.161232268822
 31
0.0
  0
LINE
  5
129
100
AcDbEntity
  8
0
  6
Continuous
 62
               7
100
AcDbLine
 10
960.77771063380487
 20
552.03251911398661
 30
0.0
 11
954.37646023922457
 21
553.16123226882178
 31
0.0
  0
LINE
  5
12A
100
AcDbEntity
  8
0
  6
Continuous
 62
               7
100
AcDbLine
 10
962.42857044099037
 20
552.75685460049817
 30
0.0
 11
960.77771063380487
 21
552.03251911398661
 31
0.0
  0
LINE
  5
12B
100
AcDbEntity
  8
0
  6
Continuous
 62
               7
100
AcDbLine
 10
962.42857044099037
 20
558.56560993714447
 30
0.0
 11
960.77771063380442
 21
559.28994542365717
 31
0.0
  0
LINE
  5
12C
100
AcDbEntity
  8
0
  6
Continuous
 62
               7
100
AcDbLine
 10
952.37646023922548
 20
558.16123226882223
 30
0.0
 11
952.37646023922593
 21
557.66123226882189
 31
0.0
  0
LINE
  5
12D
100
AcDbEntity
  8
0
  6
Continuous
 62
               7
100
AcDbLine
 10
949.3764602392248
 20
558.16123226882144
 30
0.0
 11
949.37646023922571
 21
557.66123226882235
 31
0.0
  0
LINE
  5
12E
100
AcDbEntity
  8
0
  6
Continuous
 62
               7
100
AcDbLine
 10
950.37646023922503
 20
558.16123226882212
 30
0.0
 11
950.37646023922548
 21
557.66123226882269
 31
0.0
  0
LINE
  5
12F
100
AcDbEntity
  8
0
  6
Continuous
 62
               7
100
AcDbLine
 10
951.3764602392248
 20
558.16123226882246
 30
0.0
 11
951.37646023922571
 21
557.66123226882132
 31
0.0
  0
LINE
  5
130
100
AcDbEntity
  8
0
  6
Continuous
 62
               7
100
AcDbLine
 10
949.37646023922457
 20
553.6612322688228
 30
0.0
 11
950.37646023922593
 21
553.66123226882189
 31
0.0
  0
LINE
  5
131
100
AcDbEntity
  8
0
  6
Continuous
 62
               7
100
AcDbLine
 10
949.37646023922571
 20
557.66123226882235
 30
0.0
 11
950.37646023922548
 21
557.66123226882269
 31
0.0
  0
LINE
  5
132
100
AcDbEntity
  8
0
  6
Continuous
 62
               7
100
AcDbLine
 10
952.37646023922548
 20
553.66123226882166
 30
0.0
 11
952.37646023922503
 21
553.161232268822
 31
0.0
  0
LINE
  5
133
100
AcDbEntity
  8
0
  6
Continuous
 62
               7
100
AcDbLine
 10
949.37646023922457
 20
553.6612322688228
 30
0.0
 11
949.37646023922525
 21
553.16123226882166
 31
0.0
  0
LINE
  5
134
100
AcDbEntity
  8
0
  6
Continuous
 62
               7
100
AcDbLine
 10
950.37646023922593
 20
553.66123226882189
 30
0.0
 11
950.37646023922571
 21
553.16123226882132
 31
0.0
  0
LINE
  5
135
100
AcDbEntity
  8
0
  6
Continuous
 62
               7
100
AcDbLine
 10
951.37646023922525
 20
553.66123226882212
 30
0.0
 11
951.37646023922616
 21
553.16123226882189
 31
0.0
  0
LINE
  5
136
100
AcDbEntity
  8
0
  6
Continuous
 62
               7
100
AcDbLine
 10
952.37646023922548
 20
558.16123226882223
 30
0.0
 11
954.37646023922503
 21
558.161232268822
 31
0.0
  0
LINE
  5
137
100
AcDbEntity
  8
0
  6
Continuous
 62
               7
100
AcDbLine
 10
952.37646023922503
 20
553.161232268822
 30
0.0
 11
954.37646023922457
 21
553.16123226882178
 31
0.0
  0
LINE
  5
138
100
AcDbEntity
  8
0
  6
Continuous
 62
               7
100
AcDbLine
 10
950.37646023922503
 20
558.16123226882212
 30
0.0
 11
951.3764602392248
 21
558.16123226882246
 31
0.0
  0
LINE
  5
139
100
AcDbEntity
  8
0
  6
Continuous
 62
               7
100
AcDbLine
 10
950.37646023922571
 20
553.16123226882132
 30
0.0
 11
951.37646023922616
 21
553.16123226882189
 31
0.0
  0
LINE
  5
13A
100
AcDbEntity
  8
0
  6
Continuous
 62
               7
100
AcDbLine
 10
951.37646023922525
 20
553.66123226882212
 30
0.0
 11
952.37646023922548
 21
553.66123226882166
 31
0.0
  0
LINE
  5
13B
100
AcDbEntity
  8
0
  6
Continuous
 62
               7
100
AcDbLine
 10
951.37646023922571
 20
557.66123226882132
 30
0.0
 11
952.37646023922593
 21
557.66123226882189
 31
0.0
  0
LINE
  5
13C
100
AcDbEntity
  8
0
  6
Continuous
 62
               7
100
AcDbLine
 10
961.61399424864658
 20
557.16123226882257
 30
0.0
 11
961.87646023922434
 21
554.16123226882189
 31
0.0
  0
LINE
  5
13D
100
AcDbEntity
  8
0
  6
Continuous
 62
               7
100
AcDbLine
 10
960.61017441110425
 20
557.161232268822
 30
0.0
 11
960.87264040168088
 21
554.16123226882291
 31
0.0
  0
LINE
  5
13E
100
AcDbEntity
  8
0
  6
Continuous
 62
               7
100
AcDbLine
 10
959.615718540025
 20
557.0542016423816
 30
0.0
 11
959.86327556379933
 21
554.22461191270634
 31
0.0
  0
LINE
  5
13F
100
AcDbEntity
  8
0
  6
Continuous
 62
               7
100
AcDbLine
 10
958.62714898138393
 20
556.87989015688629
 30
0.0
 11
958.84372755482445
 21
554.40438573481629
 31
0.0
  0
LINE
  5
140
100
AcDbEntity
  8
0
  6
Continuous
 62
               7
100
AcDbLine
 10
957.63857942274399
 20
556.70557867139053
 30
0.0
 11
957.82417954584685
 21
554.58415955692703
 31
0.0
  0
LINE
  5
141
100
AcDbEntity
  8
0
  6
Continuous
 62
               7
100
AcDbLine
 10
956.65000986410496
 20
556.53126718589613
 30
0.0
 11
956.80463153687037
 21
554.76393337903721
 31
0.0
  0
LINE
  5
142
100
AcDbEntity
  8
0
  6
Continuous
 62
               7
100
AcDbLine
 10
955.66144030546343
 20
556.3569557004007
 30
0.0
 11
955.78508352789413
 21
554.94370720114648
 31
0.0
  0
LINE
  5
143
100
AcDbEntity
  8
0
  6
Continuous
 62
               7
100
AcDbLine
 10
954.67287074682508
 20
556.18264421490471
 30
0.0
 11
954.7655355189188
 21
555.12348102325711
 31
0.0
  0
LINE
  5
144
100
AcDbEntity
  8
0
  6
Continuous
 62
               7
100
AcDbLine
 10
965.87646023922457
 20
555.91123226882326
 30
0.0
 11
965.87646023922503
 21
555.4112322688228
 31
0.0
  0
LINE
  5
145
100
AcDbEntity
  8
0
  6
Continuous
 62
               7
100
AcDbLine
 10
961.87646023922434
 20
554.16123226882189
 30
0.0
 11
965.87646023922503
 21
555.4112322688228
 31
0.0
  0
LINE
  5
146
100
AcDbEntity
  8
0
  6
Continuous
 62
               7
100
AcDbLine
 10
965.87646023922457
 20
555.91123226882326
 30
0.0
 11
961.87646023922571
 21
557.16123226882132
 31
0.0
  0
LINE
  5
147
100
AcDbEntity
  8
0
  6
Continuous
 62
               7
100
AcDbLine
 10
929.95133397785867
 20
522.87267355862389
 30
0.0
 11
929.95133397785821
 21
528.27267355862421
 31
0.0
  0
LINE
  5
148
100
AcDbEntity
  8
0
  6
Continuous
 62
               7
100
AcDbLine
 10
930.45133397785753
 20
530.07267355862371
 30
0.0
 11
930.45133397785798
 21
521.07267355862427
 31
0.0
  0
LINE
  5
149
100
AcDbEntity
  8
0
  6
Continuous
 62
               7
100
AcDbLine
 10
930.25133397785817
 20
528.57267355862416
 30
0.0
 11
930.4513339778573
 21
528.57267355862439
 31
0.0
  0
LINE
  5
14A
100
AcDbEntity
  8
0
  6
Continuous
 62
               7
100
AcDbLine
 10
930.25133397785839
 20
522.57267355862336
 30
0.0
 11
930.4513339778573
 21
522.57267355862439
 31
0.0
  0
LINE
  5
14B
100
AcDbEntity
  8
0
  6
Continuous
 62
               7
100
AcDbLine
 10
960.29759312452893
 20
527.0726735586253
 30
0.0
 11
961.95133397785867
 21
527.07267355862416
 31
0.0
  0
LINE
  5
14C
100
AcDbEntity
  8
0
  6
Continuous
 62
               7
100
AcDbLine
 10
960.29759312452575
 20
524.07267355862598
 30
0.0
 11
961.9513339778573
 21
524.07267355862473
 31
0.0
  0
LINE
  5
14D
100
AcDbEntity
  8
0
  6
Continuous
 62
               7
100
AcDbLine
 10
930.90479049337432
 20
530.07267355862439
 30
0.0
 11
930.45133397785753
 21
530.07267355862371
 31
0.0
  0
LINE
  5
14E
100
AcDbEntity
  8
0
  6
Continuous
 62
               7
100
AcDbLine
 10
930.90479049337455
 20
521.07267355862461
 30
0.0
 11
930.45133397785798
 21
521.07267355862427
 31
0.0
  0
LINE
  5
14F
100
AcDbEntity
  8
0
  6
Continuous
 62
               7
100
AcDbLine
 10
931.95133397785662
 20
528.07267355862461
 30
0.0
 11
949.45133397785776
 21
528.07267355862427
 31
0.0
  0
LINE
  5
150
100
AcDbEntity
  8
0
  6
Continuous
 62
               7
100
AcDbLine
 10
931.9513339778573
 20
523.07267355862416
 30
0.0
 11
949.45133397785821
 21
523.0726735586245
 31
0.0
  0
LINE
  5
151
100
AcDbEntity
  8
0
  6
Continuous
 62
               7
100
AcDbLine
 10
931.58389024347639
 20
529.54244849615009
 30
0.0
 11
931.95133397785662
 21
528.07267355862461
 31
0.0
  0
LINE
  5
152
100
AcDbEntity
  8
0
  6
Continuous
 62
               7
100
AcDbLine
 10
931.58389024347616
 20
521.60289862109903
 30
0.0
 11
931.9513339778573
 21
523.07267355862416
 31
0.0
  0
LINE
  5
153
100
AcDbEntity
  8
0
  6
Continuous
 62
               7
100
AcDbLine
 10
962.50344417962333
 20
528.47705122694731
 30
0.0
 11
962.67709235728921
 21
527.49224347393567
 31
0.0
  0
LINE
  5
154
100
AcDbEntity
  8
0
  6
Continuous
 62
               7
100
AcDbLine
 10
962.67709235728921
 20
523.65310364331378
 30
0.0
 11
954.91335336038901
 21
525.02206029964611
 31
0.0
  0
LINE
  5
155
100
AcDbEntity
  8
0
  6
Continuous
 62
               7
100
AcDbLine
 10
962.67709235728921
 20
527.49224347393567
 30
0.0
 11
954.91335336038992
 21
526.12328681760334
 31
0.0
  0
LINE
  5
156
100
AcDbEntity
  8
0
  6
Continuous
 62
               7
100
AcDbLine
 10
962.50344417962333
 20
522.66829589030112
 30
0.0
 11
962.67709235728921
 21
523.65310364331378
 31
0.0
  0
LINE
  5
157
100
AcDbEntity
  8
0
  6
Continuous
 62
               7
100
AcDbLine
 10
960.85258437243738
 20
529.20138671346001
 30
0.0
 11
954.45133397785798
 21
528.07267355862484
 31
0.0
  0
LINE
  5
158
100
AcDbEntity
  8
0
  6
Continuous
 62
               7
100
AcDbLine
 10
960.85258437243783
 20
521.94396040378933
 30
0.0
 11
954.45133397785753
 21
523.07267355862461
 31
0.0
  0
LINE
  5
159
100
AcDbEntity
  8
0
  6
Continuous
 62
               7
100
AcDbLine
 10
962.50344417962333
 20
522.66829589030112
 30
0.0
 11
960.85258437243783
 21
521.94396040378933
 31
0.0
  0
LINE
  5
15A
100
AcDbEntity
  8
0
  6
Continuous
 62
               7
100
AcDbLine
 10
962.50344417962333
 20
528.47705122694731
 30
0.0
 11
960.85258437243738
 21
529.20138671346001
 31
0.0
  0
LINE
  5
15B
100
AcDbEntity
  8
0
  6
Continuous
 62
               7
100
AcDbLine
 10
952.45133397785844
 20
528.07267355862507
 30
0.0
 11
952.45133397785889
 21
527.57267355862473
 31
0.0
  0
LINE
  5
15C
100
AcDbEntity
  8
0
  6
Continuous
 62
               7
100
AcDbLine
 10
949.45133397785776
 20
528.07267355862427
 30
0.0
 11
949.45133397785867
 21
527.57267355862518
 31
0.0
  0
LINE
  5
15D
100
AcDbEntity
  8
0
  6
Continuous
 62
               7
100
AcDbLine
 10
950.45133397785798
 20
528.07267355862496
 30
0.0
 11
950.45133397785844
 21
527.57267355862552
 31
0.0
  0
LINE
  5
15E
100
AcDbEntity
  8
0
  6
Continuous
 62
               7
100
AcDbLine
 10
951.45133397785776
 20
528.0726735586253
 30
0.0
 11
951.45133397785867
 21
527.57267355862416
 31
0.0
  0
LINE
  5
15F
100
AcDbEntity
  8
0
  6
Continuous
 62
               7
100
AcDbLine
 10
949.45133397785753
 20
523.57267355862564
 30
0.0
 11
950.45133397785889
 21
523.57267355862473
 31
0.0
  0
LINE
  5
160
100
AcDbEntity
  8
0
  6
Continuous
 62
               7
100
AcDbLine
 10
949.45133397785867
 20
527.57267355862518
 30
0.0
 11
950.45133397785844
 21
527.57267355862552
 31
0.0
  0
LINE
  5
161
100
AcDbEntity
  8
0
  6
Continuous
 62
               7
100
AcDbLine
 10
952.45133397785844
 20
523.5726735586245
 30
0.0
 11
952.45133397785798
 21
523.07267355862484
 31
0.0
  0
LINE
  5
162
100
AcDbEntity
  8
0
  6
Continuous
 62
               7
100
AcDbLine
 10
949.45133397785753
 20
523.57267355862564
 30
0.0
 11
949.45133397785821
 21
523.0726735586245
 31
0.0
  0
LINE
  5
163
100
AcDbEntity
  8
0
  6
Continuous
 62
               7
100
AcDbLine
 10
950.45133397785889
 20
523.57267355862473
 30
0.0
 11
950.45133397785867
 21
523.07267355862416
 31
0.0
  0
LINE
  5
164
100
AcDbEntity
  8
0
  6
Continuous
 62
               7
100
AcDbLine
 10
951.45133397785821
 20
523.57267355862496
 30
0.0
 11
951.45133397785912
 21
523.07267355862473
 31
0.0
  0
LINE
  5
165
100
AcDbEntity
  8
0
  6
Continuous
 62
               7
100
AcDbLine
 10
952.45133397785844
 20
528.07267355862507
 30
0.0
 11
954.45133397785798
 21
528.07267355862484
 31
0.0
  0
LINE
  5
166
100
AcDbEntity
  8
0
  6
Continuous
 62
               7
100
AcDbLine
 10
952.45133397785798
 20
523.07267355862484
 30
0.0
 11
954.45133397785753
 21
523.07267355862461
 31
0.0
  0
LINE
  5
167
100
AcDbEntity
  8
0
  6
Continuous
 62
               7
100
AcDbLine
 10
950.45133397785798
 20
528.07267355862496
 30
0.0
 11
951.45133397785776
 21
528.0726735586253
 31
0.0
  0
LINE
  5
168
100
AcDbEntity
  8
0
  6
Continuous
 62
               7
100
AcDbLine
 10
950.45133397785867
 20
523.07267355862416
 30
0.0
 11
951.45133397785912
 21
523.07267355862473
 31
0.0
  0
LINE
  5
169
100
AcDbEntity
  8
0
  6
Continuous
 62
               7
100
AcDbLine
 10
951.45133397785821
 20
523.57267355862496
 30
0.0
 11
952.45133397785844
 21
523.5726735586245
 31
0.0
  0
LINE
  5
16A
100
AcDbEntity
  8
0
  6
Continuous
 62
               7
100
AcDbLine
 10
951.45133397785867
 20
527.57267355862416
 30
0.0
 11
952.45133397785889
 21
527.57267355862473
 31
0.0
  0
LINE
  5
16B
100
AcDbEntity
  8
0
  6
Continuous
 62
               7
100
AcDbLine
 10
961.68886798727954
 20
527.07267355862541
 30
0.0
 11
961.9513339778573
 21
524.07267355862473
 31
0.0
  0
LINE
  5
16C
100
AcDbEntity
  8
0
  6
Continuous
 62
               7
100
AcDbLine
 10
960.68504814973721
 20
527.07267355862484
 30
0.0
 11
960.94751414031384
 21
524.07267355862575
 31
0.0
  0
LINE
  5
16D
100
AcDbEntity
  8
0
  6
Continuous
 62
               7
100
AcDbLine
 10
959.69059227865796
 20
526.96564293218444
 30
0.0
 11
959.93814930243229
 21
524.13605320250917
 31
0.0
  0
LINE
  5
16E
100
AcDbEntity
  8
0
  6
Continuous
 62
               7
100
AcDbLine
 10
958.70202272001688
 20
526.79133144668913
 30
0.0
 11
958.91860129345741
 21
524.31582702461913
 31
0.0
  0
LINE
  5
16F
100
AcDbEntity
  8
0
  6
Continuous
 62
               7
100
AcDbLine
 10
957.71345316137695
 20
526.61701996119336
 30
0.0
 11
957.89905328447981
 21
524.49560084672987
 31
0.0
  0
LINE
  5
170
100
AcDbEntity
  8
0
  6
Continuous
 62
               7
100
AcDbLine
 10
956.72488360273792
 20
526.44270847569896
 30
0.0
 11
956.87950527550333
 21
524.67537466884005
 31
0.0
  0
LINE
  5
171
100
AcDbEntity
  8
0
  6
Continuous
 62
               7
100
AcDbLine
 10
955.73631404409639
 20
526.26839699020354
 30
0.0
 11
955.85995726652709
 21
524.85514849094932
 31
0.0
  0
LINE
  5
172
100
AcDbEntity
  8
0
  6
Continuous
 62
               7
100
AcDbLine
 10
954.74774448545804
 20
526.09408550470755
 30
0.0
 11
954.84040925755176
 21
525.03492231305995
 31
0.0
  0
LINE
  5
173
100
AcDbEntity
  8
0
  6
Continuous
 62
               7
100
AcDbLine
 10
965.95133397785753
 20
525.82267355862609
 30
0.0
 11
965.95133397785798
 21
525.32267355862564
 31
0.0
  0
LINE
  5
174
100
AcDbEntity
  8
0
  6
Continuous
 62
               7
100
AcDbLine
 10
961.9513339778573
 20
524.07267355862473
 30
0.0
 11
965.95133397785798
 21
525.32267355862564
 31
0.0
  0
LINE
  5
175
100
AcDbEntity
  8
0
  6
Continuous
 62
               7
100
AcDbLine
 10
965.95133397785753
 20
525.82267355862609
 30
0.0
 11
961.95133397785867
 21
527.07267355862416
 31
0.0
  0
LINE
  5
176
100
AcDbEntity
  8
0
  6
Continuous
 62
               7
100
AcDbLine
 10
901.4089575335172
 20
401.61799807474819
 30
0.0
 11
901.4089575335172
 21
437.61799807474819
 31
0.0
  0
LINE
  5
177
100
AcDbEntity
  8
0
  6
Continuous
 62
               7
100
AcDbLine
 10
898.9089575335172
 20
440.11799807474819
 30
0.0
 11
898.9089575335172
 21
439.61799807474819
 31
0.0
  0
LINE
  5
178
100
AcDbEntity
  8
0
  6
Continuous
 62
               7
100
AcDbLine
 10
906.4089575335172
 20
401.61799807474819
 30
0.0
 11
906.4089575335172
 21
437.61799807474819
 31
0.0
  0
LINE
  5
179
100
AcDbEntity
  8
0
  6
Continuous
 62
               7
100
AcDbLine
 10
908.9089575335172
 20
440.11799807474819
 30
0.0
 11
908.9089575335172
 21
439.61799807474819
 31
0.0
  0
LINE
  5
17A
100
AcDbEntity
  8
0
  6
Continuous
 62
               7
100
AcDbLine
 10
898.9089575335172
 20
440.11799807474819
 30
0.0
 11
908.9089575335172
 21
440.11799807474819
 31
0.0
  0
LINE
  5
17B
100
AcDbEntity
  8
0
  6
Continuous
 62
               7
100
AcDbLine
 10
901.4089575335172
 20
437.61799807474819
 30
0.0
 11
906.4089575335172
 21
437.61799807474819
 31
0.0
  0
LINE
  5
17C
100
AcDbEntity
  8
0
  6
Continuous
 62
               7
100
AcDbLine
 10
898.9089575335172
 20
439.61799807474819
 30
0.0
 11
901.4089575335172
 21
437.61799807474819
 31
0.0
  0
LINE
  5
17D
100
AcDbEntity
  8
0
  6
Continuous
 62
               7
100
AcDbLine
 10
906.4089575335172
 20
437.61799807474819
 30
0.0
 11
908.9089575335172
 21
439.61799807474819
 31
0.0
  0
LINE
  5
17E
100
AcDbEntity
  8
0
  6
Continuous
 62
               7
100
AcDbLine
 10
898.9089575335172
 20
439.61799807474819
 30
0.0
 11
908.9089575335172
 21
439.61799807474819
 31
0.0
  0
LINE
  5
17F
100
AcDbEntity
  8
0
  6
Continuous
 62
               7
100
AcDbLine
 10
901.4089575335172
 20
401.61799807474819
 30
0.0
 11
903.9089575335172
 21
400.11799807474819
 31
0.0
  0
LINE
  5
180
100
AcDbEntity
  8
0
  6
Continuous
 62
               7
100
AcDbLine
 10
906.4089575335172
 20
401.61799807474819
 30
0.0
 11
903.9089575335172
 21
400.11799807474819
 31
0.0
  0
LINE
  5
181
100
AcDbEntity
  8
0
  6
Continuous
 62
               7
100
AcDbLine
 10
901.4089575335172
 20
430.61799807474819
 30
0.0
 11
906.4089575335172
 21
432.61799807474819
 31
0.0
  0
LINE
  5
182
100
AcDbEntity
  8
0
  6
Continuous
 62
               7
100
AcDbLine
 10
901.4089575335172
 20
428.61799807474819
 30
0.0
 11
906.4089575335172
 21
430.61799807474819
 31
0.0
  0
LINE
  5
183
100
AcDbEntity
  8
0
  6
Continuous
 62
               7
100
AcDbLine
 10
901.4089575335172
 20
426.61799807474819
 30
0.0
 11
906.4089575335172
 21
428.61799807474819
 31
0.0
  0
LINE
  5
184
100
AcDbEntity
  8
0
  6
Continuous
 62
               7
100
AcDbLine
 10
901.4089575335172
 20
424.61799807474819
 30
0.0
 11
906.4089575335172
 21
426.61799807474819
 31
0.0
  0
LINE
  5
185
100
AcDbEntity
  8
0
  6
Continuous
 62
               7
100
AcDbLine
 10
901.4089575335172
 20
422.61799807474819
 30
0.0
 11
906.4089575335172
 21
424.61799807474819
 31
0.0
  0
LINE
  5
186
100
AcDbEntity
  8
0
  6
Continuous
 62
               7
100
AcDbLine
 10
901.4089575335172
 20
420.61799807474819
 30
0.0
 11
906.4089575335172
 21
422.61799807474819
 31
0.0
  0
LINE
  5
187
100
AcDbEntity
  8
0
  6
Continuous
 62
               7
100
AcDbLine
 10
901.4089575335172
 20
418.61799807474819
 30
0.0
 11
906.4089575335172
 21
420.61799807474819
 31
0.0
  0
LINE
  5
188
100
AcDbEntity
  8
0
  6
Continuous
 62
               7
100
AcDbLine
 10
901.4089575335172
 20
416.61799807474819
 30
0.0
 11
906.4089575335172
 21
418.61799807474819
 31
0.0
  0
LINE
  5
189
100
AcDbEntity
  8
0
  6
Continuous
 62
               7
100
AcDbLine
 10
901.4089575335172
 20
414.61799807474819
 30
0.0
 11
906.4089575335172
 21
416.61799807474819
 31
0.0
  0
LINE
  5
18A
100
AcDbEntity
  8
0
  6
Continuous
 62
               7
100
AcDbLine
 10
901.4089575335172
 20
412.61799807474819
 30
0.0
 11
906.4089575335172
 21
414.6179980747483
 31
0.0
  0
LINE
  5
18B
100
AcDbEntity
  8
0
  6
Continuous
 62
               7
100
AcDbLine
 10
901.4089575335172
 20
410.61799807474819
 30
0.0
 11
906.4089575335172
 21
412.6179980747483
 31
0.0
  0
LINE
  5
18C
100
AcDbEntity
  8
0
  6
Continuous
 62
               7
100
AcDbLine
 10
901.40895753351697
 20
408.6179980747483
 30
0.0
 11
904.4089575335172
 21
409.81799807474829
 31
0.0
  0
LINE
  5
18D
100
AcDbEntity
  8
0
  6
Continuous
 62
               7
100
AcDbLine
 10
905.9089575335172
 20
402.11799807474819
 30
0.0
 11
905.9089575335172
 21
410.41799807474831
 31
0.0
  0
LINE
  5
18E
100
AcDbEntity
  8
0
  6
Continuous
 62
               7
100
AcDbLine
 10
904.4089575335172
 20
409.81799807474829
 30
0.0
 11
905.45895753351715
 21
410.86799807474841
 31
0.0
  0
LINE
  5
18F
100
AcDbEntity
  8
0
  6
Continuous
 62
               7
100
AcDbLine
 10
905.9089575335172
 20
410.41799807474831
 30
0.0
 11
905.45895753351715
 21
410.86799807474841
 31
0.0
  0
LINE
  5
190
100
AcDbEntity
  8
0
  6
Continuous
 62
               7
100
AcDbLine
 10
905.9089575335172
 20
410.41799807474831
 30
0.0
 11
906.40895753351697
 21
410.6179980747483
 31
0.0
  0
LINE
  5
191
100
AcDbEntity
  8
0
  6
Continuous
 62
               7
100
AcDbLine
 10
906.4089575335172
 20
401.61799807474819
 30
0.0
 11
905.9089575335172
 21
402.11799807474819
 31
0.0
  0
LINE
  5
192
100
AcDbEntity
  8
0
  6
Continuous
 62
               4
100
AcDbLine
 10
1001.3776218792946
 20
150.38182398772608
 30
0.0
 11
1001.3776218792946
 21
170.38182398772608
 31
0.0
  0
LINE
  5
193
100
AcDbEntity
  8
0
  6
Continuous
 62
               4
100
AcDbLine
 10
1151.3776218792946
 20
150.38182398772608
 30
0.0
 11
1001.3776218792946
 21
150.38182398772608
 31
0.0
  0
LINE
  5
194
100
AcDbEntity
  8
0
  6
Continuous
 62
               4
100
AcDbLine
 10
1151.3776218792946
 20
170.38182398772608
 30
0.0
 11
1151.3776218792946
 21
150.38182398772608
 31
0.0
  0
LINE
  5
195
100
AcDbEntity
  8
0
  6
Continuous
 62
               4
100
AcDbLine
 10
1151.3776218792946
 20
170.38182398772608
 30
0.0
 11
1001.3776218792946
 21
170.38182398772608
 31
0.0
  0
LINE
  5
196
100
AcDbEntity
  8
0
  6
Continuous
 62
               4
100
AcDbLine
 10
300.73296093862172
 20
725.02648492839865
 30
0.0
 11
300.73296093862172
 21
745.02648492839865
 31
0.0
  0
LINE
  5
197
100
AcDbEntity
  8
0
  6
Continuous
 62
               4
100
AcDbLine
 10
450.73296093862172
 20
725.02648492839865
 30
0.0
 11
300.73296093862172
 21
725.02648492839865
 31
0.0
  0
LINE
  5
198
100
AcDbEntity
  8
0
  6
Continuous
 62
               4
100
AcDbLine
 10
450.73296093862172
 20
745.02648492839865
 30
0.0
 11
450.73296093862172
 21
725.02648492839865
 31
0.0
  0
LINE
  5
199
100
AcDbEntity
  8
0
  6
Continuous
 62
               4
100
AcDbLine
 10
450.73296093862172
 20
745.02648492839865
 30
0.0
 11
300.73296093862172
 21
745.02648492839865
 31
0.0
  0
LINE
  5
19A
100
AcDbEntity
  8
0
  6
Continuous
 62
               7
100
AcDbLine
 10
703.52652130115894
 20
420.72470822686688
 30
0.0
 11
715.52652130115894
 21
432.72470822686688
 31
0.0
  0
LINE
  5
19B
100
AcDbEntity
  8
0
  6
Continuous
 62
               7
100
AcDbLine
 10
696.45545348929329
 20
420.72470822686688
 30
0.0
 11
708.45545348929363
 21
432.72470822686688
 31
0.0
  0
LINE
  5
19C
100
AcDbEntity
  8
0
  6
Continuous
 62
               7
100
AcDbLine
 10
689.38438567742787
 20
420.72470822686688
 30
0.0
 11
701.38438567742833
 21
432.72470822686688
 31
0.0
  0
LINE
  5
19D
100
AcDbEntity
  8
0
  6
Continuous
 62
               3
100
AcDbLine
 10
579.5799118944326
 20
432.72470822686688
 30
0.0
 11
579.5799118944326
 21
420.72470822686665
 31
0.0
  0
LINE
  5
19E
100
AcDbEntity
  8
0
  6
Continuous
 62
               3
100
AcDbLine
 10
683.5799118944326
 20
432.72470822686688
 30
0.0
 11
683.5799118944326
 21
420.72470822686665
 31
0.0
  0
LINE
  5
19F
100
AcDbEntity
  8
0
  6
Continuous
 62
               3
100
AcDbLine
 10
683.5799118944326
 20
432.72470822686688
 30
0.0
 11
933.07991189443305
 21
432.72470822686688
 31
0.0
  0
LINE
  5
1A0
100
AcDbEntity
  8
0
  6
Continuous
 62
               7
100
AcDbLine
 10
683.5799118944326
 20
429.06237006760239
 30
0.0
 11
687.24225005369726
 21
432.72470822686688
 31
0.0
  0
LINE
  5
1A1
100
AcDbEntity
  8
0
  6
Continuous
 62
               7
100
AcDbLine
 10
683.5799118944326
 20
421.99130225573714
 30
0.0
 11
694.31331786556279
 21
432.72470822686688
 31
0.0
  0
LINE
  5
1A2
100
AcDbEntity
  8
0
  6
Continuous
 62
               7
100
AcDbLine
 10
579.5799118944326
 20
431.12838724558452
 30
0.0
 11
569.17623287571496
 21
420.72470822686688
 31
0.0
  0
LINE
  5
1A3
100
AcDbEntity
  8
0
  6
Continuous
 62
               3
100
AcDbLine
 10
579.5799118944326
 20
432.72470822686682
 30
0.0
 11
534.07991189443283
 21
432.72470822686688
 31
0.0
  0
LINE
  5
1A4
100
AcDbEntity
  8
0
  6
Continuous
 62
               7
100
AcDbLine
 10
579.5799118944326
 20
424.05731943371893
 30
0.0
 11
576.24730068758049
 21
420.72470822686688
 31
0.0
  0
LINE
  5
1A5
100
AcDbEntity
  8
0
  6
DASHED
 62
               6
100
AcDbLine
 10
680.5799118944326
 20
422.22470822686665
 30
0.0
 11
581.5799118944326
 21
422.22470822686665
 31
0.0
  0
LINE
  5
1A6
100
AcDbEntity
  8
0
  6
Continuous
 62
               6
100
AcDbLine
 10
681.57991189443305
 20
435.72470418365157
 30
0.0
 11
716.57991189443305
 21
435.72470418365157
 31
0.0
  0
LINE
  5
1A7
100
AcDbEntity
  8
0
  6
Continuous
 62
               6
100
AcDbLine
 10
581.5799118944326
 20
435.72470418365157
 30
0.0
 11
581.5799118944326
 21
424.12470822686674
 31
0.0
  0
LINE
  5
1A8
100
AcDbEntity
  8
0
  6
Continuous
 62
               6
100
AcDbLine
 10
546.5799118944326
 20
435.72470418365157
 30
0.0
 11
581.5799118944326
 21
435.72470418365157
 31
0.0
  0
LINE
  5
1A9
100
AcDbEntity
  8
0
  6
Continuous
 62
               6
100
AcDbLine
 10
681.57991189443305
 20
424.12470822686674
 30
0.0
 11
581.5799118944326
 21
424.12470822686674
 31
0.0
  0
LINE
  5
1AA
100
AcDbEntity
  8
0
  6
Continuous
 62
               6
100
AcDbLine
 10
681.57991189443305
 20
424.12470822686674
 30
0.0
 11
681.57991189443305
 21
435.72470418365157
 31
0.0
  0
LINE
  5
1AB
100
AcDbEntity
  8
0
  6
DASHED
 62
               6
100
AcDbLine
 10
683.5799118944326
 20
434.72470822686688
 30
0.0
 11
932.57991189443305
 21
434.72470822686688
 31
0.0
  0
LINE
  5
1AC
100
AcDbEntity
  8
0
  6
DASHED
 62
               6
100
AcDbLine
 10
682.5799118944326
 20
433.72470822686688
 30
0.0
 11
682.5799118944326
 21
423.22470822686665
 31
0.0
  0
LINE
  5
1AD
100
AcDbEntity
  8
0
  6
DASHED
 62
               6
100
AcDbLine
 10
579.5799118944326
 20
434.72470822686682
 30
0.0
 11
534.07991189443283
 21
434.72470822686688
 31
0.0
  0
LINE
  5
1AE
100
AcDbEntity
  8
0
  6
DASHED
 62
               6
100
AcDbLine
 10
580.5799118944326
 20
433.72470822686682
 30
0.0
 11
580.5799118944326
 21
423.22470822686665
 31
0.0
  0
LINE
  5
1AF
100
AcDbEntity
  8
0
  6
Continuous
 62
               7
100
AcDbLine
 10
696.10572116372828
 20
397.72470418365157
 30
0.0
 11
696.10572116372873
 21
433.72470418365157
 31
0.0
  0
LINE
  5
1B0
100
AcDbEntity
  8
0
  6
Continuous
 62
               7
100
AcDbLine
 10
693.60572116372873
 20
436.22470418365157
 30
0.0
 11
693.60572116372873
 21
435.72470418365157
 31
0.0
  0
LINE
  5
1B1
100
AcDbEntity
  8
0
  6
Continuous
 62
               7
100
AcDbLine
 10
701.10572116372828
 20
397.72470418365157
 30
0.0
 11
701.10572116372873
 21
433.72470418365157
 31
0.0
  0
LINE
  5
1B2
100
AcDbEntity
  8
0
  6
Continuous
 62
               7
100
AcDbLine
 10
703.60572116372873
 20
436.22470418365157
 30
0.0
 11
703.60572116372873
 21
435.72470418365157
 31
0.0
  0
LINE
  5
1B3
100
AcDbEntity
  8
0
  6
Continuous
 62
               7
100
AcDbLine
 10
693.60572116372873
 20
436.22470418365157
 30
0.0
 11
703.60572116372873
 21
436.22470418365157
 31
0.0
  0
LINE
  5
1B4
100
AcDbEntity
  8
0
  6
Continuous
 62
               7
100
AcDbLine
 10
696.10572116372873
 20
433.72470418365157
 30
0.0
 11
701.10572116372873
 21
433.72470418365157
 31
0.0
  0
LINE
  5
1B5
100
AcDbEntity
  8
0
  6
Continuous
 62
               7
100
AcDbLine
 10
693.60572116372873
 20
435.72470418365157
 30
0.0
 11
696.10572116372873
 21
433.72470418365157
 31
0.0
  0
LINE
  5
1B6
100
AcDbEntity
  8
0
  6
Continuous
 62
               7
100
AcDbLine
 10
701.10572116372873
 20
433.72470418365157
 30
0.0
 11
703.60572116372873
 21
435.72470418365157
 31
0.0
  0
LINE
  5
1B7
100
AcDbEntity
  8
0
  6
Continuous
 62
               7
100
AcDbLine
 10
693.60572116372873
 20
435.72470418365157
 30
0.0
 11
703.60572116372873
 21
435.72470418365157
 31
0.0
  0
LINE
  5
1B8
100
AcDbEntity
  8
0
  6
Continuous
 62
               7
100
AcDbLine
 10
696.10572116372828
 20
397.72470418365157
 30
0.0
 11
698.60572116372828
 21
396.22470418365157
 31
0.0
  0
LINE
  5
1B9
100
AcDbEntity
  8
0
  6
Continuous
 62
               7
100
AcDbLine
 10
701.10572116372828
 20
397.72470418365157
 30
0.0
 11
698.60572116372828
 21
396.22470418365157
 31
0.0
  0
LINE
  5
1BA
100
AcDbEntity
  8
0
  6
Continuous
 62
               7
100
AcDbLine
 10
696.10572116372828
 20
426.72470418365157
 30
0.0
 11
701.10572116372828
 21
428.72470418365157
 31
0.0
  0
LINE
  5
1BB
100
AcDbEntity
  8
0
  6
Continuous
 62
               7
100
AcDbLine
 10
696.10572116372828
 20
424.72470418365157
 30
0.0
 11
701.10572116372873
 21
426.72470418365157
 31
0.0
  0
LINE
  5
1BC
100
AcDbEntity
  8
0
  6
Continuous
 62
               7
100
AcDbLine
 10
696.10572116372828
 20
422.72470418365157
 30
0.0
 11
701.10572116372828
 21
424.72470418365157
 31
0.0
  0
LINE
  5
1BD
100
AcDbEntity
  8
0
  6
Continuous
 62
               7
100
AcDbLine
 10
696.10572116372828
 20
420.72470418365157
 30
0.0
 11
701.10572116372828
 21
422.72470418365157
 31
0.0
  0
LINE
  5
1BE
100
AcDbEntity
  8
0
  6
Continuous
 62
               7
100
AcDbLine
 10
696.10572116372828
 20
418.72470418365157
 30
0.0
 11
701.10572116372828
 21
420.72470418365157
 31
0.0
  0
LINE
  5
1BF
100
AcDbEntity
  8
0
  6
Continuous
 62
               7
100
AcDbLine
 10
696.10572116372828
 20
416.7247041836518
 30
0.0
 11
701.10572116372828
 21
418.72470418365157
 31
0.0
  0
LINE
  5
1C0
100
AcDbEntity
  8
0
  6
Continuous
 62
               7
100
AcDbLine
 10
696.10572116372828
 20
414.72470418365157
 30
0.0
 11
701.10572116372828
 21
416.72470418365157
 31
0.0
  0
LINE
  5
1C1
100
AcDbEntity
  8
0
  6
Continuous
 62
               7
100
AcDbLine
 10
696.10572116372828
 20
412.7247041836518
 30
0.0
 11
701.10572116372828
 21
414.7247041836518
 31
0.0
  0
LINE
  5
1C2
100
AcDbEntity
  8
0
  6
Continuous
 62
               7
100
AcDbLine
 10
696.10572116372828
 20
410.7247041836518
 30
0.0
 11
701.10572116372828
 21
412.7247041836518
 31
0.0
  0
LINE
  5
1C3
100
AcDbEntity
  8
0
  6
Continuous
 62
               7
100
AcDbLine
 10
696.10572116372828
 20
408.72470418365157
 30
0.0
 11
701.10572116372828
 21
410.7247041836518
 31
0.0
  0
LINE
  5
1C4
100
AcDbEntity
  8
0
  6
Continuous
 62
               7
100
AcDbLine
 10
696.10572116372828
 20
406.72470418365157
 30
0.0
 11
701.10572116372828
 21
408.7247041836518
 31
0.0
  0
LINE
  5
1C5
100
AcDbEntity
  8
0
  6
Continuous
 62
               7
100
AcDbLine
 10
696.10572116372828
 20
404.7247041836518
 30
0.0
 11
699.10572116372828
 21
405.92470418365184
 31
0.0
  0
LINE
  5
1C6
100
AcDbEntity
  8
0
  6
Continuous
 62
               7
100
AcDbLine
 10
700.60572116372828
 20
398.22470418365157
 30
0.0
 11
700.60572116372828
 21
406.52470418365198
 31
0.0
  0
LINE
  5
1C7
100
AcDbEntity
  8
0
  6
Continuous
 62
               7
100
AcDbLine
 10
699.10572116372828
 20
405.92470418365161
 30
0.0
 11
700.15572116372846
 21
406.9747041836518
 31
0.0
  0
LINE
  5
1C8
100
AcDbEntity
  8
0
  6
Continuous
 62
               7
100
AcDbLine
 10
700.60572116372828
 20
406.52470418365175
 30
0.0
 11
700.15572116372846
 21
406.9747041836518
 31
0.0
  0
LINE
  5
1C9
100
AcDbEntity
  8
0
  6
Continuous
 62
               7
100
AcDbLine
 10
700.60572116372828
 20
406.52470418365198
 30
0.0
 11
701.10572116372828
 21
406.7247041836518
 31
0.0
  0
LINE
  5
1CA
100
AcDbEntity
  8
0
  6
Continuous
 62
               7
100
AcDbLine
 10
701.10572116372828
 20
397.72470418365157
 30
0.0
 11
700.60572116372828
 21
398.22470418365157
 31
0.0
  0
LINE
  5
1CB
100
AcDbEntity
  8
0
  6
Continuous
 62
               4
100
AcDbLine
 10
641.5799118944326
 20
441.72471227008219
 30
0.0
 11
641.5799118944326
 21
474.72471227008219
 31
0.0
  0
LINE
  5
1CC
100
AcDbEntity
  8
0
  6
Continuous
 62
               4
100
AcDbLine
 10
641.5799118944326
 20
471.72471227008219
 30
0.0
 11
631.5799118944326
 21
471.72471227008219
 31
0.0
  0
LINE
  5
1CD
100
AcDbEntity
  8
0
  6
DASHDOT
 62
               4
100
AcDbLine
 10
631.57991189443283
 20
414.72470822686688
 30
0.0
 11
631.57991189443283
 21
451.26817229141938
 31
0.0
  0
LINE
  5
1CE
100
AcDbEntity
  8
0
  6
Continuous
 62
               4
100
AcDbLine
 10
631.57991189443283
 20
503.72470822686711
 30
0.0
 11
631.57991189443283
 21
454.26817229141938
 31
0.0
  0
LINE
  5
1CF
100
AcDbEntity
  8
0
  6
Continuous
 62
               4
100
AcDbLine
 10
934.07991189443305
 20
500.72470822686711
 30
0.0
 11
631.57991189443283
 21
500.72470822686711
 31
0.0
  0
LINE
  5
1D0
100
AcDbEntity
  8
0
  6
Continuous
 62
               4
100
AcDbLine
 10
631.57991189443283
 20
500.72470822686711
 30
0.0
 11
531.57991189443283
 21
500.72470822686711
 31
0.0
  0
LINE
  5
1D1
100
AcDbEntity
  8
0
  6
Continuous
 62
               4
100
AcDbLine
 10
531.57991189443283
 20
500.72470822686711
 30
0.0
 11
540.44318167154279
 21
502.28754182586943
 31
0.0
  0
LINE
  5
1D2
100
AcDbEntity
  8
0
  6
Continuous
 62
               4
100
AcDbLine
 10
531.57991189443283
 20
500.72470822686711
 30
0.0
 11
540.44318167154279
 21
499.16187462786468
 31
0.0
  0
LINE
  5
1D3
100
AcDbEntity
  8
0
  6
Continuous
 62
               2
100
AcDbLine
 10
630.3403841609337
 20
434.74749659734863
 30
0.0
 11
621.99410141526494
 21
433.27582176066556
 31
0.0
  0
LINE
  5
1D4
100
AcDbEntity
  8
0
  6
Continuous
 62
               2
100
AcDbLine
 10
641.5799118944326
 20
430.72470822686677
 30
0.0
 11
641.5799118944326
 21
436.72470822686677
 31
0.0
  0
LINE
  5
1D5
100
AcDbEntity
  8
0
  6
Continuous
 62
               2
100
AcDbLine
 10
616.57991189443271
 20
429.72470822686677
 30
0.0
 11
640.5799118944326
 21
429.72470822686677
 31
0.0
  0
LINE
  5
1D6
100
AcDbEntity
  8
0
  6
Continuous
 62
               2
100
AcDbLine
 10
616.5799118944326
 20
435.72470822686677
 30
0.0
 11
629.5799118944326
 21
435.72470822686677
 31
0.0
  0
LINE
  5
1D7
100
AcDbEntity
  8
0
  6
Continuous
 62
               3
100
AcDbLine
 10
629.82991189441361
 20
436.72470822688138
 30
0.0
 11
543.57991189443283
 21
436.72470822687404
 31
0.0
  0
LINE
  5
1D8
100
AcDbEntity
  8
0
  6
Continuous
 62
               3
100
AcDbLine
 10
629.82991189441373
 20
435.22470822688143
 30
0.0
 11
622.61962815299376
 21
434.46687686819018
 31
0.0
  0
LINE
  5
1D9
100
AcDbEntity
  8
0
  6
Continuous
 62
               2
100
AcDbLine
 10
931.07991189443305
 20
437.72470822686688
 30
0.0
 11
642.5799118944326
 21
437.72470822686688
 31
0.0
  0
LINE
  5
1DA
100
AcDbEntity
  8
0
  6
Continuous
 62
               2
100
AcDbLine
 10
534.07991189443283
 20
437.72470822686688
 30
0.0
 11
630.07991189443328
 21
437.72470822686682
 31
0.0
  0
LINE
  5
1DB
100
AcDbEntity
  8
0
  6
Continuous
 62
               7
100
AcDbLine
 10
560.56694514950095
 20
398.72470822687768
 30
0.0
 11
560.56694514950141
 21
434.72470822687768
 31
0.0
  0
LINE
  5
1DC
100
AcDbEntity
  8
0
  6
Continuous
 62
               7
100
AcDbLine
 10
558.06694514950141
 20
437.22470822687768
 30
0.0
 11
558.06694514950141
 21
436.72470822687768
 31
0.0
  0
LINE
  5
1DD
100
AcDbEntity
  8
0
  6
Continuous
 62
               7
100
AcDbLine
 10
565.56694514950095
 20
398.72470822687768
 30
0.0
 11
565.56694514950141
 21
434.72470822687768
 31
0.0
  0
LINE
  5
1DE
100
AcDbEntity
  8
0
  6
Continuous
 62
               7
100
AcDbLine
 10
568.06694514950141
 20
437.22470822687768
 30
0.0
 11
568.06694514950141
 21
436.72470822687768
 31
0.0
  0
LINE
  5
1DF
100
AcDbEntity
  8
0
  6
Continuous
 62
               7
100
AcDbLine
 10
558.06694514950141
 20
437.22470822687768
 30
0.0
 11
568.06694514950141
 21
437.22470822687768
 31
0.0
  0
LINE
  5
1E0
100
AcDbEntity
  8
0
  6
Continuous
 62
               7
100
AcDbLine
 10
560.56694514950141
 20
434.72470822687768
 30
0.0
 11
565.56694514950141
 21
434.72470822687768
 31
0.0
  0
LINE
  5
1E1
100
AcDbEntity
  8
0
  6
Continuous
 62
               7
100
AcDbLine
 10
558.06694514950141
 20
436.72470822687768
 30
0.0
 11
560.56694514950141
 21
434.72470822687768
 31
0.0
  0
LINE
  5
1E2
100
AcDbEntity
  8
0
  6
Continuous
 62
               7
100
AcDbLine
 10
565.56694514950141
 20
434.72470822687768
 30
0.0
 11
568.06694514950141
 21
436.72470822687768
 31
0.0
  0
LINE
  5
1E3
100
AcDbEntity
  8
0
  6
Continuous
 62
               7
100
AcDbLine
 10
558.06694514950141
 20
436.72470822687768
 30
0.0
 11
568.06694514950141
 21
436.72470822687768
 31
0.0
  0
LINE
  5
1E4
100
AcDbEntity
  8
0
  6
Continuous
 62
               7
100
AcDbLine
 10
560.56694514950095
 20
398.72470822687768
 30
0.0
 11
563.06694514950095
 21
397.22470822687768
 31
0.0
  0
LINE
  5
1E5
100
AcDbEntity
  8
0
  6
Continuous
 62
               7
100
AcDbLine
 10
565.56694514950095
 20
398.72470822687768
 30
0.0
 11
563.06694514950095
 21
397.22470822687768
 31
0.0
  0
LINE
  5
1E6
100
AcDbEntity
  8
0
  6
Continuous
 62
               7
100
AcDbLine
 10
560.56694514950095
 20
427.72470822687768
 30
0.0
 11
565.56694514950095
 21
429.72470822687768
 31
0.0
  0
LINE
  5
1E7
100
AcDbEntity
  8
0
  6
Continuous
 62
               7
100
AcDbLine
 10
560.56694514950095
 20
425.72470822687768
 30
0.0
 11
565.56694514950141
 21
427.72470822687768
 31
0.0
  0
LINE
  5
1E8
100
AcDbEntity
  8
0
  6
Continuous
 62
               7
100
AcDbLine
 10
560.56694514950095
 20
423.72470822687768
 30
0.0
 11
565.56694514950095
 21
425.72470822687768
 31
0.0
  0
LINE
  5
1E9
100
AcDbEntity
  8
0
  6
Continuous
 62
               7
100
AcDbLine
 10
560.56694514950095
 20
421.72470822687768
 30
0.0
 11
565.56694514950095
 21
423.72470822687768
 31
0.0
  0
LINE
  5
1EA
100
AcDbEntity
  8
0
  6
Continuous
 62
               7
100
AcDbLine
 10
560.56694514950095
 20
419.72470822687768
 30
0.0
 11
565.56694514950095
 21
421.72470822687768
 31
0.0
  0
LINE
  5
1EB
100
AcDbEntity
  8
0
  6
Continuous
 62
               7
100
AcDbLine
 10
560.56694514950095
 20
417.72470822687791
 30
0.0
 11
565.56694514950095
 21
419.72470822687768
 31
0.0
  0
LINE
  5
1EC
100
AcDbEntity
  8
0
  6
Continuous
 62
               7
100
AcDbLine
 10
560.56694514950095
 20
415.72470822687768
 30
0.0
 11
565.56694514950095
 21
417.72470822687768
 31
0.0
  0
LINE
  5
1ED
100
AcDbEntity
  8
0
  6
Continuous
 62
               7
100
AcDbLine
 10
560.56694514950095
 20
413.72470822687791
 30
0.0
 11
565.56694514950095
 21
415.72470822687791
 31
0.0
  0
LINE
  5
1EE
100
AcDbEntity
  8
0
  6
Continuous
 62
               7
100
AcDbLine
 10
560.56694514950095
 20
411.72470822687791
 30
0.0
 11
565.56694514950095
 21
413.72470822687791
 31
0.0
  0
LINE
  5
1EF
100
AcDbEntity
  8
0
  6
Continuous
 62
               7
100
AcDbLine
 10
560.56694514950095
 20
409.72470822687768
 30
0.0
 11
565.56694514950095
 21
411.72470822687791
 31
0.0
  0
LINE
  5
1F0
100
AcDbEntity
  8
0
  6
Continuous
 62
               7
100
AcDbLine
 10
560.56694514950095
 20
407.72470822687768
 30
0.0
 11
565.56694514950095
 21
409.72470822687791
 31
0.0
  0
LINE
  5
1F1
100
AcDbEntity
  8
0
  6
Continuous
 62
               7
100
AcDbLine
 10
560.56694514950095
 20
405.72470822687791
 30
0.0
 11
563.56694514950095
 21
406.92470822687795
 31
0.0
  0
LINE
  5
1F2
100
AcDbEntity
  8
0
  6
Continuous
 62
               7
100
AcDbLine
 10
565.06694514950095
 20
399.22470822687768
 30
0.0
 11
565.06694514950095
 21
407.52470822687809
 31
0.0
  0
LINE
  5
1F3
100
AcDbEntity
  8
0
  6
Continuous
 62
               7
100
AcDbLine
 10
563.56694514950095
 20
406.92470822687773
 30
0.0
 11
564.61694514950113
 21
407.97470822687791
 31
0.0
  0
LINE
  5
1F4
100
AcDbEntity
  8
0
  6
Continuous
 62
               7
100
AcDbLine
 10
565.06694514950095
 20
407.52470822687786
 30
0.0
 11
564.61694514950113
 21
407.97470822687791
 31
0.0
  0
LINE
  5
1F5
100
AcDbEntity
  8
0
  6
Continuous
 62
               7
100
AcDbLine
 10
565.06694514950095
 20
407.52470822687809
 30
0.0
 11
565.56694514950095
 21
407.72470822687791
 31
0.0
  0
LINE
  5
1F6
100
AcDbEntity
  8
0
  6
Continuous
 62
               7
100
AcDbLine
 10
565.56694514950095
 20
398.72470822687768
 30
0.0
 11
565.06694514950095
 21
399.22470822687768
 31
0.0
  0
LINE
  5
1F7
100
AcDbEntity
  8
0
  6
Continuous
 62
               4
100
AcDbLine
 10
597.57991189443271
 20
436.72470822687825
 30
0.0
 11
591.7948234072536
 21
443.61910821494899
 31
0.0
  0
LINE
  5
1F8
100
AcDbEntity
  8
0
  6
Continuous
 62
               4
100
AcDbLine
 10
597.57991189443271
 20
436.72470822687825
 30
0.0
 11
594.5017306045014
 21
445.18194181395125
 31
0.0
  0
LINE
  5
1F9
100
AcDbEntity
  8
0
  6
Continuous
 62
               4
100
AcDbLine
 10
661.5799118944326
 20
424.12470822686657
 30
0.0
 11
664.65809318436357
 21
432.58194181393975
 31
0.0
  0
LINE
  5
1FA
100
AcDbEntity
  8
0
  6
Continuous
 62
               4
100
AcDbLine
 10
661.5799118944326
 20
424.12470822686657
 30
0.0
 11
667.36500038161137
 21
431.01910821493743
 31
0.0
  0
LINE
  5
1FB
100
AcDbEntity
  8
0
  6
Continuous
 62
               4
100
AcDbLine
 10
573.39448911485886
 20
478.61508928363332
 30
0.0
 11
597.57991189443271
 21
436.72470822687825
 31
0.0
  0
LINE
  5
1FC
100
AcDbEntity
  8
0
  6
Continuous
 62
               4
100
AcDbLine
 10
534.98711611916553
 20
478.61508928363332
 30
0.0
 11
573.39448911485886
 21
478.61508928363332
 31
0.0
  0
LINE
  5
1FD
100
AcDbEntity
  8
0
  6
Continuous
 62
               4
100
AcDbLine
 10
680.70736303977458
 20
457.25442542989038
 30
0.0
 11
661.5799118944326
 21
424.12470822686657
 31
0.0
  0
LINE
  5
1FE
100
AcDbEntity
  8
0
  6
Continuous
 62
               4
100
AcDbLine
 10
680.70736303977458
 20
457.25442542989038
 30
0.0
 11
715.86668418354179
 21
457.25442542989038
 31
0.0
  0
CIRCLE
  5
1FF
100
AcDbEntity
  8
0
  6
Continuous
 62
               4
100
AcDbCircle
 10
934.07991189443305
 20
500.72470822686711
 30
0.0
 40
1.5
  0
CIRCLE
  5
200
100
AcDbEntity
  8
0
  6
Continuous
 62
               4
100
AcDbCircle
 10
911.99033384664813
 20
466.62048870471517
 30
0.0
 40
1.5
  0
CIRCLE
  5
201
100
AcDbEntity
  8
0
  6
Continuous
 62
               4
100
AcDbCircle
 10
861.912471932073
 20
461.61270251325772
 30
0.0
 40
1.5
  0
CIRCLE
  5
202
100
AcDbEntity
  8
0
  6
Continuous
 62
               4
100
AcDbCircle
 10
893.07991189443305
 20
445.72470822686688
 30
0.0
 40
1.5
  0
CIRCLE
  5
203
100
AcDbEntity
  8
0
  6
Continuous
 62
               4
100
AcDbCircle
 10
893.07991189443305
 20
545.72470822686705
 30
0.0
 40
1.5
  0
CIRCLE
  5
204
100
AcDbEntity
  8
0
  6
Continuous
 62
               4
100
AcDbCircle
 10
893.07991189443305
 20
545.72470822686705
 30
0.0
 40
1.5
  0
CIRCLE
  5
205
100
AcDbEntity
  8
0
  6
Continuous
 62
               4
100
AcDbCircle
 10
893.07991189443305
 20
565.72470822686705
 30
0.0
 40
1.5
  0
CIRCLE
  5
206
100
AcDbEntity
  8
0
  6
Continuous
 62
               4
100
AcDbCircle
 10
749.52775173449743
 20
414.72470822686688
 30
0.0
 40
1.5
  0
CIRCLE
  5
207
100
AcDbEntity
  8
0
  6
Continuous
 62
               4
100
AcDbCircle
 10
742.59954850422196
 20
426.72470822686688
 30
0.0
 40
1.5
  0
CIRCLE
  5
208
100
AcDbEntity
  8
0
  6
Continuous
 62
               4
100
AcDbCircle
 10
737.98074635070486
 20
434.72470822686688
 30
0.0
 40
1.5
  0
CIRCLE
  5
209
100
AcDbEntity
  8
0
  6
Continuous
 62
               4
100
AcDbCircle
 10
736.24869554313602
 20
437.72470822686688
 30
0.0
 40
1.5
  0
CIRCLE
  5
20A
100
AcDbEntity
  8
0
  6
Continuous
 62
               4
100
AcDbCircle
 10
789.57991189443283
 20
432.72470822686688
 30
0.0
 40
1.5
  0
CIRCLE
  5
20B
100
AcDbEntity
  8
0
  6
Continuous
 62
               4
100
AcDbCircle
 10
789.57991189443283
 20
420.72470822686688
 30
0.0
 40
1.5
  0
CIRCLE
  5
20C
100
AcDbEntity
  8
0
  6
Continuous
 62
               4
100
AcDbCircle
 10
789.57991189443283
 20
420.72470822686688
 30
0.0
 40
1.5
  0
CIRCLE
  5
20D
100
AcDbEntity
  8
0
  6
Continuous
 62
               4
100
AcDbCircle
 10
789.57991189443283
 20
408.72470822686688
 30
0.0
 40
1.5
  0
CIRCLE
  5
20E
100
AcDbEntity
  8
0
  6
Continuous
 62
               4
100
AcDbCircle
 10
805.57991189443283
 20
408.72470822686688
 30
0.0
 40
1.5
  0
CIRCLE
  5
20F
100
AcDbEntity
  8
0
  6
Continuous
 62
               4
100
AcDbCircle
 10
805.57991189443283
 20
437.72470822686688
 30
0.0
 40
1.5
  0
CIRCLE
  5
210
100
AcDbEntity
  8
0
  6
Continuous
 62
               4
100
AcDbCircle
 10
789.57991189443283
 20
432.72470822686688
 30
0.0
 40
1.5
  0
CIRCLE
  5
211
100
AcDbEntity
  8
0
  6
Continuous
 62
               4
100
AcDbCircle
 10
789.57991189443283
 20
437.72470822686688
 30
0.0
 40
1.5
  0
CIRCLE
  5
212
100
AcDbEntity
  8
0
  6
Continuous
 62
               4
100
AcDbCircle
 10
641.5799118944326
 20
471.72471227008219
 30
0.0
 40
1.500000000000002
  0
CIRCLE
  5
213
100
AcDbEntity
  8
0
  6
Continuous
 62
               4
100
AcDbCircle
 10
631.5799118944326
 20
471.72471227008219
 30
0.0
 40
1.500000000000002
  0
CIRCLE
  5
214
100
AcDbEntity
  8
0
  6
Continuous
 62
               4
100
AcDbCircle
 10
631.57991189443283
 20
500.72470822686711
 30
0.0
 40
1.5
  0
CIRCLE
  5
215
100
AcDbEntity
  8
0
  6
Continuous
 62
               4
100
AcDbCircle
 10
631.57991189443283
 20
500.72470822686711
 30
0.0
 40
1.5
  0
ARC
  5
216
100
AcDbEntity
  8
0
  6
Continuous
 62
               6
100
AcDbCircle
 10
929.47991198980048
 20
404.12470832223431
 30
0.0
 40
2.2999999523162842
100
AcDbArc
 50
0.0
 51
90.000000000000028
  0
ARC
  5
217
100
AcDbEntity
  8
0
  6
Continuous
 62
               6
100
AcDbCircle
 10
929.47991198980048
 20
404.12470832223431
 30
0.0
 40
4.5999999046325684
100
AcDbArc
 50
0.0
 51
90.000000000000028
  0
ARC
  5
218
100
AcDbEntity
  8
0
  6
Continuous
 62
               6
100
AcDbCircle
 10
888.67991179906539
 20
404.12470832223431
 30
0.0
 40
2.2999999523162842
100
AcDbArc
 50
90.000000000000028
 51
180.0
  0
ARC
  5
219
100
AcDbEntity
  8
0
  6
Continuous
 62
               6
100
AcDbCircle
 10
888.67991179906539
 20
404.12470832223431
 30
0.0
 40
4.5999999046325684
100
AcDbArc
 50
90.000000000000028
 51
180.0
  0
ARC
  5
21A
100
AcDbEntity
  8
0
  6
Continuous
 62
               6
100
AcDbCircle
 10
888.67991179906539
 20
313.32470813149951
 30
0.0
 40
4.5999999046325684
100
AcDbArc
 50
180.0
 51
270.0
  0
ARC
  5
21B
100
AcDbEntity
  8
0
  6
Continuous
 62
               6
100
AcDbCircle
 10
888.67991179906539
 20
313.32470813149951
 30
0.0
 40
2.2999999523162842
100
AcDbArc
 50
180.0
 51
270.0
  0
ARC
  5
21C
100
AcDbEntity
  8
0
  6
Continuous
 62
               6
100
AcDbCircle
 10
929.47991198980048
 20
313.32470813149951
 30
0.0
 40
2.2999999523162842
100
AcDbArc
 50
270.0
 51
0.0
  0
ARC
  5
21D
100
AcDbEntity
  8
0
  6
Continuous
 62
               6
100
AcDbCircle
 10
929.47991198980048
 20
313.32470813149951
 30
0.0
 40
4.5999999046325684
100
AcDbArc
 50
270.0
 51
0.0
  0
ARC
  5
21E
100
AcDbEntity
  8
0
  6
Continuous
 62
               2
100
AcDbCircle
 10
864.90349096944306
 20
439.97937940756708
 30
0.0
 40
0.823579075010048
100
AcDbArc
 50
95.710593137499785
 51
265.00000000000102
  0
ARC
  5
21F
100
AcDbEntity
  8
0
  6
Continuous
 62
               6
100
AcDbCircle
 10
886.49657856109957
 20
555.72470822686705
 30
0.0
 40
34.083333333333329
100
AcDbArc
 50
342.93846878010368
 51
17.061531219896253
  0
ARC
  5
220
100
AcDbEntity
  8
0
  6
Continuous
 62
               7
100
AcDbCircle
 10
929.07991189443305
 20
575.22470822686705
 30
0.0
 40
1.5
100
AcDbArc
 50
180.0
 51
270.0
  0
ARC
  5
221
100
AcDbEntity
  8
0
  6
Continuous
 62
               7
100
AcDbCircle
 10
954.93556759524881
 20
555.66123226882155
 30
0.0
 40
0.5591073560238961
100
AcDbArc
 50
99.99999999999558
 51
260.00000000000676
  0
ARC
  5
222
100
AcDbEntity
  8
0
  6
Continuous
 62
               7
100
AcDbCircle
 10
930.82991675474136
 20
551.86123226882091
 30
0.0
 40
0.7
100
AcDbArc
 50
270.00000000000119
 51
345.96375653208702
  0
ARC
  5
223
100
AcDbEntity
  8
0
  6
Continuous
 62
               7
100
AcDbCircle
 10
930.82991675474091
 20
559.46123226882196
 30
0.0
 40
0.7
100
AcDbArc
 50
14.036243467915357
 51
90.000000000000028
  0
ARC
  5
224
100
AcDbEntity
  8
0
  6
Continuous
 62
               7
100
AcDbCircle
 10
930.17646023922498
 20
558.36123226882239
 30
0.0
 40
0.3
100
AcDbArc
 50
90.000000000001123
 51
180.0
  0
ARC
  5
225
100
AcDbEntity
  8
0
  6
Continuous
 62
               7
100
AcDbCircle
 10
930.17646023922498
 20
552.96123226882105
 30
0.0
 40
0.3
100
AcDbArc
 50
180.00000000000108
 51
270.00000000000119
  0
ARC
  5
226
100
AcDbEntity
  8
0
  6
Continuous
 62
               7
100
AcDbCircle
 10
955.01044133388177
 20
525.57267355862439
 30
0.0
 40
0.5591073560238961
100
AcDbArc
 50
99.99999999999558
 51
260.00000000000676
  0
ARC
  5
227
100
AcDbEntity
  8
0
  6
Continuous
 62
               7
100
AcDbCircle
 10
930.90479049337432
 20
521.77267355862386
 30
0.0
 40
0.7
100
AcDbArc
 50
270.00000000000119
 51
345.96375653208702
  0
ARC
  5
228
100
AcDbEntity
  8
0
  6
Continuous
 62
               7
100
AcDbCircle
 10
930.90479049337387
 20
529.3726735586248
 30
0.0
 40
0.7
100
AcDbArc
 50
14.036243467915357
 51
90.000000000000028
  0
ARC
  5
229
100
AcDbEntity
  8
0
  6
Continuous
 62
               7
100
AcDbCircle
 10
930.25133397785794
 20
528.27267355862534
 30
0.0
 40
0.3
100
AcDbArc
 50
90.000000000001123
 51
180.0
  0
ARC
  5
22A
100
AcDbEntity
  8
0
  6
Continuous
 62
               7
100
AcDbCircle
 10
930.25133397785794
 20
522.87267355862389
 30
0.0
 40
0.3
100
AcDbArc
 50
180.00000000000108
 51
270.00000000000119
  0
ARC
  5
22B
100
AcDbEntity
  8
0
  6
Continuous
 62
               7
100
AcDbCircle
 10
874.44986081301045
 20
408.25194453437757
 30
0.0
 40
30.0
100
AcDbArc
 50
344.86278517270671
 51
2.9923020128746414
  0
ARC
  5
22C
100
AcDbEntity
  8
0
  6
DASHED
 62
               6
100
AcDbCircle
 10
581.5799118944326
 20
423.22470822686665
 30
0.0
 40
1.0
100
AcDbArc
 50
180.0
 51
270.0
  0
ARC
  5
22D
100
AcDbEntity
  8
0
  6
DASHED
 62
               6
100
AcDbCircle
 10
681.5799118944326
 20
423.22470822686665
 30
0.0
 40
1.0
100
AcDbArc
 50
270.0
 51
0.0
  0
ARC
  5
22E
100
AcDbEntity
  8
0
  6
DASHED
 62
               6
100
AcDbCircle
 10
683.5799118944326
 20
433.72470822686688
 30
0.0
 40
1.0
100
AcDbArc
 50
90.000000000000028
 51
180.0
  0
ARC
  5
22F
100
AcDbEntity
  8
0
  6
DASHED
 62
               6
100
AcDbCircle
 10
579.5799118944326
 20
433.72470822686682
 30
0.0
 40
1.0
100
AcDbArc
 50
0.0
 51
90.000000000000028
  0
ARC
  5
230
100
AcDbEntity
  8
0
  6
Continuous
 62
               7
100
AcDbCircle
 10
669.14662444322153
 20
404.35865064328124
 30
0.0
 40
30.0
100
AcDbArc
 50
344.86278517270802
 51
2.9923020128758626
  0
ARC
  5
231
100
AcDbEntity
  8
0
  6
Continuous
 62
               2
100
AcDbCircle
 10
630.07991189443328
 20
436.22470822686699
 30
0.0
 40
1.5
100
AcDbArc
 50
279.99999999999966
 51
90.0
  0
ARC
  5
232
100
AcDbEntity
  8
0
  6
Continuous
 62
               2
100
AcDbCircle
 10
640.5799118944326
 20
430.72470822686677
 30
0.0
 40
1.0
100
AcDbArc
 50
269.99999999999994
 51
0.0
  0
ARC
  5
233
100
AcDbEntity
  8
0
  6
Continuous
 62
               2
100
AcDbCircle
 10
642.5799118944326
 20
436.72470822686677
 30
0.0
 40
1.0
100
AcDbArc
 50
89.999999999999957
 51
180.0
  0
ARC
  5
234
100
AcDbEntity
  8
0
  6
Continuous
 62
               2
100
AcDbCircle
 10
616.5799118944326
 20
432.72470822686677
 30
0.0
 40
3.0
100
AcDbArc
 50
90.000000000000028
 51
270.0
  0
ARC
  5
235
100
AcDbEntity
  8
0
  6
Continuous
 62
               3
100
AcDbCircle
 10
629.82991189441373
 20
435.97470822688149
 30
0.0
 40
0.7499999999998863
100
AcDbArc
 50
270.0000000000087
 51
90.000000000008697
  0
ARC
  5
236
100
AcDbEntity
  8
0
  6
Continuous
 62
               7
100
AcDbCircle
 10
533.6078484289942
 20
405.35865468650735
 30
0.0
 40
30.0
100
AcDbArc
 50
344.86278517270802
 51
2.9923020128758626
  0
TEXT
  5
237
100
AcDbEntity
  8
0
 62
               7
100
AcDbText
 10
1008.8776236674337
 20
155.88182410693537
 30
0.0
 40
8.9999997615814333
  1
ケラバ壁取合い詳細図 【S=1/3】
 41
1.0000000000000004
 72
               5
 11
1143.8776200911552
 21
155.88182410693537
 31
0.0
100
AcDbText
  0
TEXT
  5
238
100
AcDbEntity
  8
0
 62
               7
100
AcDbText
 10
760.48006141132748
 20
502.22484218540387
 30
0.0
 40
9.6000000000000103
  1
（割付けにより調整）
 41
0.9999999999999994
 72
               5
 11
856.48006141132748
 21
502.22484218540387
 31
0.0
100
AcDbText
  0
TEXT
  5
239
100
AcDbEntity
  8
0
 62
               7
100
AcDbText
 10
524.07994544453061
 20
548.2249947732945
 30
0.0
 40
9.6000000000000103
  1
アスファルトルーフィング 22kg
 50
359.99998269715599
 41
0.9999999999999998
 72
               5
 11
663.2799454445244
 21
548.22495273606398
 31
0.0
100
AcDbText
  0
TEXT
  5
23A
100
AcDbEntity
  8
0
 62
               7
100
AcDbText
 10
524.07994544453061
 20
532.22493373813825
 30
0.0
 40
9.6000000000000103
  1
硬質木片セメント板 12mm＋12mm
 50
359.99998269715599
 41
0.9999999999999998
 72
               5
 11
663.2799454445244
 21
532.22489170090773
 31
0.0
100
AcDbText
  0
TEXT
  5
23B
100
AcDbEntity
  8
0
 62
               7
100
AcDbText
 10
870.0856522316401
 20
463.93761074009137
 30
0.0
 40
9.6000000000000103
  1
50～100
 50
5.7106131626814003
 41
1.0000000000000004
 72
               5
 11
903.51890065418377
 21
467.2809473842965
 31
0.0
100
AcDbText
  0
TEXT
  5
23C
100
AcDbEntity
  8
0
 62
               7
100
AcDbText
 10
891.5800369972651
 20
478.7718697732945
 30
0.0
 40
9.6000000000000103
  1
100～150
 50
89.999982013910653
 41
1.0000000000000002
 72
               5
 11
891.58004905165785
 21
517.17186977329266
 31
0.0
100
AcDbText
  0
TEXT
  5
23D
100
AcDbEntity
  8
0
 62
               7
100
AcDbText
 10
891.5800369972651
 20
550.924823874857
 30
0.0
 40
9.6000000000000103
  1
20
 50
89.999982013910653
 41
0.9999999999999972
 72
               5
 11
891.58004001086329
 21
560.52482387485645
 31
0.0
100
AcDbText
  0
TEXT
  5
23E
100
AcDbEntity
  8
0
 62
               7
100
AcDbText
 10
801.41286170429635
 20
542.22481166782575
 30
0.0
 40
9.6000000000000103
  1
雨押え：屋根同材
 41
0.9999999999999998
 72
               5
 11
878.21286170429642
 21
542.22481166782575
 31
0.0
100
AcDbText
  0
TEXT
  5
23F
100
AcDbEntity
  8
0
 62
               7
100
AcDbText
 10
726.01906287617135
 20
479.14705287876325
 30
0.0
 40
9.6000000000000103
  1
力板（ブチルテープをはさむ）
 41
0.9999999999999997
 72
               5
 11
860.41906287617144
 21
479.14705287876325
 31
0.0
100
AcDbText
  0
TEXT
  5
240
100
AcDbEntity
  8
0
 62
               7
100
AcDbText
 10
794.67757117695248
 20
587.22493373813825
 30
0.0
 40
9.6000000000000103
  1
コーキング（屋根工事外）
 41
0.9999999999999998
 72
               5
 11
909.87757117695264
 21
587.22493373813825
 31
0.0
100
AcDbText
  0
TEXT
  5
241
100
AcDbEntity
  8
0
 62
               7
100
AcDbText
 10
788.07997596210862
 20
421.92473232212262
 30
0.0
 40
9.6000000000000103
  1
12
 50
89.999982013910653
 41
0.9999999999999972
 72
               5
 11
788.07997897570681
 21
431.52473232212213
 31
0.0
100
AcDbText
  0
TEXT
  5
242
100
AcDbEntity
  8
0
 62
               7
100
AcDbText
 10
788.07997596210862
 20
409.92473232212262
 30
0.0
 40
9.6000000000000103
  1
12
 50
89.999982013910653
 41
0.9999999999999972
 72
               5
 11
788.07997897570681
 21
419.52473232212213
 31
0.0
100
AcDbText
  0
TEXT
  5
243
100
AcDbEntity
  8
0
 62
               7
100
AcDbText
 10
804.07997596210885
 20
418.42473232212262
 30
0.0
 40
9.6000000000000103
  1
29
 50
89.999982013910653
 41
0.9999999999999972
 72
               5
 11
804.07997897570704
 21
428.02473232212213
 31
0.0
100
AcDbText
  0
TEXT
  5
244
100
AcDbEntity
  8
0
 62
               7
100
AcDbText
 10
788.07997596210862
 20
438.824726218607
 30
0.0
 40
9.6000000000000103
  1
5
 50
89.999982013910653
 41
1.0000000000000031
 72
               5
 11
788.07997746890771
 21
443.62472621860678
 31
0.0
100
AcDbText
  0
TEXT
  5
245
100
AcDbEntity
  8
0
 62
               7
100
AcDbText
 10
524.07994544453061
 20
564.22505580845075
 30
0.0
 40
9.6000000000000103
  1
プロムナ－ル－フT：各種金属板
 50
359.99998269715599
 41
0.9999999999999998
 72
               5
 11
663.2799454445244
 21
564.22501377122023
 31
0.0
100
AcDbText
  0
TEXT
  5
246
100
AcDbEntity
  8
0
 62
               7
100
AcDbText
 10
337.48296195190062
 20
730.52648504760793
 30
0.0
 40
8.9999997615814333
  1
プロムナールーフT
 41
1.0000000000000002
 72
               5
 11
413.98295992534281
 21
730.52648504760793
 31
0.0
100
AcDbText
  0
TEXT
  5
247
100
AcDbEntity
  8
0
 62
               7
100
AcDbText
 10
631.77991189443264
 20
471.72471227008219
 30
0.0
 40
9.6000000000000103
  1
10
 41
1.0000000000000013
 72
               5
 11
641.37991189443267
 21
471.72471227008219
 31
0.0
100
AcDbText
  0
TEXT
  5
248
100
AcDbEntity
  8
0
 62
               7
100
AcDbText
 10
573.47252322473355
 20
502.22484218540387
 30
0.0
 40
9.6000000000000103
  1
@390
 41
1.0000000000000013
 72
               5
 11
592.6725232247336
 21
502.22484218540387
 31
0.0
100
AcDbText
  0
TEXT
  5
249
100
AcDbEntity
  8
0
 62
               7
100
AcDbText
 10
681.2897240310366
 20
457.25442542989038
 30
0.0
 40
9.5999999999999766
  1
ガーター
 41
0.8750000000000028
 72
               5
 11
714.88972403103662
 21
457.25442542989038
 31
0.0
100
AcDbText
  0
TEXT
  5
24A
100
AcDbEntity
  8
0
 62
               7
100
AcDbText
 10
534.98711611916553
 20
478.61508928363332
 30
0.0
 40
9.6000000000000725
  1
吊り子
 50
0.0000173028438992
 41
0.9999999999999937
 72
               5
 11
563.78711611916424
 21
478.61509798099127
 31
0.0
100
AcDbText
  0
ENDSEC
  0
SECTION
  2
OBJECTS
  0
DICTIONARY
  5
19
100
AcDbDictionary
  3
ACAD_GROUP
350
1A
  3
ACAD_MLINESTYLE
350
1B
  3
DWGPROPS
350
24B
  0
DICTIONARY
  5
1A
102
{ACAD_REACTORS
330
19
102
}
100
AcDbDictionary
  0
DICTIONARY
  5
1B
102
{ACAD_REACTORS
330
19
102
}
100
AcDbDictionary
  3
STANDARD
350
1C
  0
MLINESTYLE
  5
1C
102
{ACAD_REACTORS
330
1B
102
}
100
AcDbMlineStyle
  2
Standard
 70
               0
  3

 62
               0
 51
90.0
 52
90.0
 71
               2
 49
0.5
 62
             256
  6
ByLayer
 49
-0.5
 62
             256
  6
ByLayer
  0
XRECORD
  5
24B
100
AcDbXrecord
  1
DWGPROPS COOKIE
  2

  3

  4

  6

  7

  0
ENDSEC
  0
EOF
