  0
SECTION
  2
HEADER
  9
$ACADVER
  1
AC1014
  9
$ACADMAINTVER
 70
               0
  9
$DWGCODEPAGE
  3
ANSI_932
  9
$INSBASE
 10
0.0
 20
0.0
 30
0.0
  9
$EXTMIN
 10
0.0
 20
0.0
 30
0.0
  9
$EXTMAX
 10
891.00000000000091
 20
630.00000000000068
 30
0.0
  9
$LIMMIN
 10
0.0
 20
0.0
  9
$LIMMAX
 10
891.00000000000091
 20
630.00000000000068
  9
$ORTHOMODE
 70
               0
  9
$REGENMODE
 70
               1
  9
$FILLMODE
 70
               1
  9
$QTEXTMODE
 70
               0
  9
$MIRRTEXT
 70
               1
  9
$DRAGMODE
 70
               2
  9
$LTSCALE
 40
3.0000000000000031
  9
$OSMODE
 70
               0
  9
$ATTMODE
 70
               1
  9
$TEXTSIZE
 40
0.2
  9
$TRACEWID
 40
0.05
  9
$TEXTSTYLE
  7
Standard
  9
$CLAYER
  8
0
  9
$CELTYPE
  6
Continuous
  9
$CECOLOR
 62
             256
  9
$CELTSCALE
 40
1.0
  9
$DELOBJ
 70
               1
  9
$DISPSILH
 70
               0
  9
$DIMSCALE
 40
1.0
  9
$DIMASZ
 40
0.18
  9
$DIMEXO
 40
0.0625
  9
$DIMDLI
 40
0.38
  9
$DIMRND
 40
0.0
  9
$DIMDLE
 40
0.0
  9
$DIMEXE
 40
0.18
  9
$DIMTP
 40
0.0
  9
$DIMTM
 40
0.0
  9
$DIMTXT
 40
0.18
  9
$DIMCEN
 40
0.09
  9
$DIMTSZ
 40
0.0
  9
$DIMTOL
 70
               0
  9
$DIMLIM
 70
               0
  9
$DIMTIH
 70
               1
  9
$DIMTOH
 70
               1
  9
$DIMSE1
 70
               0
  9
$DIMSE2
 70
               0
  9
$DIMTAD
 70
               0
  9
$DIMZIN
 70
               0
  9
$DIMBLK
  1

  9
$DIMASO
 70
               1
  9
$DIMSHO
 70
               1
  9
$DIMPOST
  1

  9
$DIMAPOST
  1

  9
$DIMALT
 70
               0
  9
$DIMALTD
 70
               2
  9
$DIMALTF
 40
25.399999999999999
  9
$DIMLFAC
 40
1.0
  9
$DIMTOFL
 70
               0
  9
$DIMTVP
 40
0.0
  9
$DIMTIX
 70
               0
  9
$DIMSOXD
 70
               0
  9
$DIMSAH
 70
               0
  9
$DIMBLK1
  1

  9
$DIMBLK2
  1

  9
$DIMSTYLE
  2
Standard
  9
$DIMCLRD
 70
               0
  9
$DIMCLRE
 70
               0
  9
$DIMCLRT
 70
               0
  9
$DIMTFAC
 40
1.0
  9
$DIMGAP
 40
0.09
  9
$DIMJUST
 70
               0
  9
$DIMSD1
 70
               0
  9
$DIMSD2
 70
               0
  9
$DIMTOLJ
 70
               1
  9
$DIMTZIN
 70
               0
  9
$DIMALTZ
 70
               0
  9
$DIMALTTZ
 70
               0
  9
$DIMFIT
 70
               3
  9
$DIMUPT
 70
               0
  9
$DIMUNIT
 70
               2
  9
$DIMDEC
 70
               4
  9
$DIMTDEC
 70
               4
  9
$DIMALTU
 70
               2
  9
$DIMALTTD
 70
               2
  9
$DIMTXSTY
  7
Standard
  9
$DIMAUNIT
 70
               0
  9
$LUNITS
 70
               2
  9
$LUPREC
 70
               4
  9
$SKETCHINC
 40
0.1
  9
$FILLETRAD
 40
0.0
  9
$AUNITS
 70
               0
  9
$AUPREC
 70
               0
  9
$MENU
  1
acad
  9
$ELEVATION
 40
0.0
  9
$PELEVATION
 40
0.0
  9
$THICKNESS
 40
0.0
  9
$LIMCHECK
 70
               0
  9
$BLIPMODE
 70
               1
  9
$CHAMFERA
 40
0.0
  9
$CHAMFERB
 40
0.0
  9
$CHAMFERC
 40
0.0
  9
$CHAMFERD
 40
0.0
  9
$SKPOLY
 70
               0
  9
$TDCREATE
 40
0.000000000
  9
$TDUPDATE
 40
0.000000000
  9
$TDINDWG
 40
0.0000000000
  9
$TDUSRTIMER
 40
0.0000000000
  9
$USRTIMER
 70
               1
  9
$ANGBASE
 50
0.0
  9
$ANGDIR
 70
               0
  9
$PDMODE
 70
               0
  9
$PDSIZE
 40
0.0
  9
$PLINEWID
 40
0.0
  9
$COORDS
 70
               0
  9
$SPLFRAME
 70
               0
  9
$SPLINETYPE
 70
               6
  9
$SPLINESEGS
 70
               8
  9
$ATTDIA
 70
               0
  9
$ATTREQ
 70
               1
  9
$HANDLING
 70
               1
  9
$HANDSEED
  5
1CD
  9
$SURFTAB1
 70
               6
  9
$SURFTAB2
 70
               6
  9
$SURFTYPE
 70
               6
  9
$SURFU
 70
               6
  9
$SURFV
 70
               6
  9
$UCSNAME
  2

  9
$UCSORG
 10
0.0
 20
0.0
 30
0.0
  9
$UCSXDIR
 10
1.0
 20
0.0
 30
0.0
  9
$UCSYDIR
 10
0.0
 20
1.0
 30
0.0
  9
$PUCSNAME
  2

  9
$PUCSORG
 10
0.0
 20
0.0
 30
0.0
  9
$PUCSXDIR
 10
1.0
 20
0.0
 30
0.0
  9
$PUCSYDIR
 10
0.0
 20
1.0
 30
0.0
  9
$USERI1
 70
               0
  9
$USERI2
 70
               0
  9
$USERI3
 70
               0
  9
$USERI4
 70
               0
  9
$USERI5
 70
               0
  9
$USERR1
 40
0.0
  9
$USERR2
 40
0.0
  9
$USERR3
 40
0.0
  9
$USERR4
 40
0.0
  9
$USERR5
 40
0.0
  9
$WORLDVIEW
 70
               1
  9
$SHADEDGE
 70
               3
  9
$SHADEDIF
 70
              70
  9
$TILEMODE
 70
               1
  9
$MAXACTVP
 70
              16
  9
$PINSBASE
 10
0.0
 20
0.0
 30
0.0
  9
$PLIMCHECK
 70
               0
  9
$PEXTMIN
 10
1.0000000000000000E+20
 20
1.0000000000000000E+20
 30
1.0000000000000000E+20
  9
$PEXTMAX
 10
-1.0000000000000000E+20
 20
-1.0000000000000000E+20
 30
-1.0000000000000000E+20
  9
$PLIMMIN
 10
0.0
 20
0.0
  9
$PLIMMAX
 10
12.0
 20
9.0
  9
$UNITMODE
 70
               0
  9
$VISRETAIN
 70
               0
  9
$PLINEGEN
 70
               1
  9
$PSLTSCALE
 70
               0
  9
$TREEDEPTH
 70
            3020
  9
$PICKSTYLE
 70
               1
  9
$CMLSTYLE
  2
Standard
  9
$CMLJUST
 70
               0
  9
$CMLSCALE
 40
1.0
  9
$PROXYGRAPHICS
 70
               0
  9
$MEASUREMENT
 70
               0
  0
ENDSEC
  0
SECTION
  2
CLASSES
  0
CLASS
  1
LWPOLYLINE
  2
AcDbPolyline
  3
"AutoCAD"
 90
        0
280
               0
281
               1
  0
CLASS
  1
IMAGE
  2
AcDbRasterImage
  3
ISM
 90
      127
280
               0
281
               1
  0
CLASS
  1
OLE2FRAME
  2
AcDbOle2Frame
  3
""
 90
        0
280
               0
281
               1
  0
CLASS
  1
HATCH
  2
AcDbHatch
  3
"ACAD_SEDONA"
 90
        0
280
               0
281
               1
  0
CLASS
  1
DICTIONARYVAR
  2
AcDbDictionaryVar
  3
"AutoCAD"
 90
        0
280
               0
281
               0
  0
CLASS
  1
RASTERVARIABLES
  2
AcDbRasterVariables
  3
ISM
 90
        0
280
               0
281
               0
  0
CLASS
  1
IMAGEDEF
  2
AcDbRasterImageDef
  3
ISM
 90
        0
280
               0
281
               0
  0
CLASS
  1
IMAGEDEF_REACTOR
  2
AcDbRasterImageDefReactor
  3
ISM
 90
        1
280
               0
281
               0
  0
CLASS
  1
IDBUFFER
  2
AcDbIdBuffer
  3
"Acad"
 90
        0
280
               0
281
               0
  0
CLASS
  1
SPATIAL_FILTER
  2
AcDbSpatialFilter
  3
"Acad"
 90
        0
280
               0
281
               0
  0
CLASS
  1
XRECORD
  2
AcDbXrecord
  3
"<Built In>"
 90
        0
280
               0
281
               0
  0
CLASS
  1
SORTENTSTABLE
  2
AcDbSortentsTable
  3
"AutoCAD"
 90
        0
280
               0
281
               0
  0
CLASS
  1
LAYER_INDEX
  2
AcDbLayerIndex
  3
"Acad"
 90
        0
280
               0
281
               0
  0
CLASS
  1
SPATIAL_INDEX
  2
AcDbSpatialIndex
  3
"Acad"
 90
        0
280
               0
281
               0
  0
CLASS
  1
OBJECT_PTR
  2
CAseDLPNTableRecord
  3
"ASE-LPNTableRecord"
 90
        1
280
               0
281
               0
  0
CLASS
  1
LAYOUT
  2
AcDbLayout
  3
"AutoCAD 2000"
 90
        0
280
               0
281
               0
  0
CLASS
  1
PLOTSETTINGS
  2
AcDbPlotSettings
  3
"AutoCAD 2000"
 90
        0
280
               0
281
               0
  0
CLASS
  1
ACDBDICTIONARYWDFLT
  2
AcDbDictionaryWithDefault
  3
"AutoCAD 2000"
 90
        0
280
               0
281
               0
  0
CLASS
  1
ACDBPLACEHOLDER
  2
AcDbPlaceHolder
  3
"AutoCAD 2000"
 90
        0
280
               0
281
               0
  0
CLASS
  1
VBA_PROJECT
  2
AcDbVbaProject
  3
"acadvba"
 90
        0
280
               0
281
               0
  0
CLASS
  1
WIPEOUT
  2
AcDbWipeout
  3
WipeOut|AutoCAD Express Tool|expresstools@autodesk.com
 90
      127
280
               0
281
               1
  0
CLASS
  1
WIPEOUTVARIABLES
  2
AcDbWipeoutVariables
  3
WipeOut|AutoCAD Express Tool|expresstools@autodesk.com
 90
        0
280
               0
281
               0
  0
CLASS
  1
RTEXT
  2
RText
  3
RText|AutoCAD Express Tool|expresstools@autodesk.com
 90
        0
280
               0
281
               1
  0
CLASS
  1
ARCALIGNEDTEXT
  2
AcDbArcAlignedText
  3
ATEXT|AutoCAD Express Tool|expresstools@autodesk.com
 90
        0
280
               0
281
               1
  0
ENDSEC
  0
SECTION
  2
TABLES
  0
TABLE
  2
VPORT
  5
7
100
AcDbSymbolTable
 70
               1
  0
VPORT
  5
15
100
AcDbSymbolTableRecord
100
AcDbViewportTableRecord
  2
*ACTIVE
 70
               0
 10
0.0
 20
0.0
 11
1.0
 21
1.0
 12
445.50000000000045
 22
315.00000000000034
 13
0.0
 23
0.0
 14
10.0
 24
10.0
 15
10.0
 25
10.0
 16
0.0
 26
0.0
 36
1.0
 17
0.0
 27
0.0
 37
0.0
 40
630.00000000000068
 41
1.4142857142857141
 42
50.0
 43
0.0
 44
0.0
 50
0.0
 51
0.0
 71
               0
 72
             100
 73
               1
 74
               1
 75
               0
 76
               0
 77
               0
 78
               0
  0
ENDTAB
  0
TABLE
  2
LTYPE
  5
4
100
AcDbSymbolTable
 70
              24
  0
LTYPE
  5
11
100
AcDbSymbolTableRecord
100
AcDbLinetypeTableRecord
  2
ByBlock
 70
              64
  3

 72
              65
 73
               0
 40
0.0
  0
LTYPE
  5
12
100
AcDbSymbolTableRecord
100
AcDbLinetypeTableRecord
  2
ByLayer
 70
              64
  3

 72
              65
 73
               0
 40
0.0
  0
LTYPE
  5
13
100
AcDbSymbolTableRecord
100
AcDbLinetypeTableRecord
  2
Continuous
 70
              64
  3
Solid line
 72
              65
 73
               0
 40
0.0
  0
LTYPE
  5
1D
100
AcDbSymbolTableRecord
100
AcDbLinetypeTableRecord
  2
DOT
 70
              64
  3
Dot . . . . . . . . . . . . . . . . . . . . . .
 72
              65
 73
               2
 40
6.3499999999999996
 49
0.35
 74
               0
 49
-6.0
 74
               0
  0
LTYPE
  5
1E
100
AcDbSymbolTableRecord
100
AcDbLinetypeTableRecord
  2
DASHED
 70
              64
  3
Dashed __ __ __ __ __ __ __ __ __ __ __ __ __ _
 72
              65
 73
               2
 40
12.699999999999999
 49
6.3499999999999996
 74
               0
 49
-6.3499999999999996
 74
               0
  0
LTYPE
  5
1F
100
AcDbSymbolTableRecord
100
AcDbLinetypeTableRecord
  2
DASHDOT
 70
              64
  3
Dash dot __ . __ . __ . __ . __ . __ . __ . __
 72
              65
 73
               4
 40
25.399999999999999
 49
12.699999999999999
 74
               0
 49
-6.0
 74
               0
 49
0.7
 74
               0
 49
-6.0
 74
               0
  0
LTYPE
  5
20
100
AcDbSymbolTableRecord
100
AcDbLinetypeTableRecord
  2
DIVIDE
 70
              64
  3
Divide ____ . . ____ . . ____ . . ____ . . ____
 72
              65
 73
               6
 40
31.75
 49
12.699999999999999
 74
               0
 49
-6.0
 74
               0
 49
0.875
 74
               0
 49
-6.0
 74
               0
 49
0.875
 74
               0
 49
-6.0
 74
               0
  0
LTYPE
  5
21
100
AcDbSymbolTableRecord
100
AcDbLinetypeTableRecord
  2
HIDDEN
 70
              64
  3
Hidden __ __ __ __ __ __ __ __ __ __ __ __ __ _
 72
              65
 73
               2
 40
9.5250000000000004
 49
6.3499999999999996
 74
               0
 49
-3.1749999999999998
 74
               0
  0
LTYPE
  5
22
100
AcDbSymbolTableRecord
100
AcDbLinetypeTableRecord
  2
CENTER
 70
              64
  3
Center ____ _ ____ _ ____ _ ____ _ ____ _ ____
 72
              65
 73
               4
 40
50.799999999999997
 49
31.75
 74
               0
 49
-6.3499999999999996
 74
               0
 49
6.3499999999999996
 74
               0
 49
-6.3499999999999996
 74
               0
  0
LTYPE
  5
23
100
AcDbSymbolTableRecord
100
AcDbLinetypeTableRecord
  2
PHANTOM
 70
              64
  3
Phantom ______  __  __  ______  __  __  ______
 72
              65
 73
               6
 40
63.5
 49
31.75
 74
               0
 49
-6.3499999999999996
 74
               0
 49
6.3499999999999996
 74
               0
 49
-6.3499999999999996
 74
               0
 49
6.3499999999999996
 74
               0
 49
-6.3499999999999996
 74
               0
  0
LTYPE
  5
24
100
AcDbSymbolTableRecord
100
AcDbLinetypeTableRecord
  2
ACAD_ISO02W100
 70
              64
  3
ISO dash __ __ __ __ __ __ __ __ __ __ __ __ __
 72
              65
 73
               2
 40
15.0
 49
12.0
 74
               0
 49
-3.0
 74
               0
  0
LTYPE
  5
25
100
AcDbSymbolTableRecord
100
AcDbLinetypeTableRecord
  2
ACAD_ISO03W100
 70
              64
  3
ISO dash space __ __ __ __ __ __ __ __ __ __ __ __ __ __
 72
              65
 73
               2
 40
30.0
 49
12.0
 74
               0
 49
-18.0
 74
               0
  0
LTYPE
  5
26
100
AcDbSymbolTableRecord
100
AcDbLinetypeTableRecord
  2
ACAD_ISO04W100
 70
              64
  3
ISO long-dash dot ____ . ____ . ____ . ____ . _
 72
              65
 73
               4
 40
30.0
 49
24.0
 74
               0
 49
-3.0
 74
               0
 49
0.0
 74
               0
 49
-3.0
 74
               0
  0
LTYPE
  5
27
100
AcDbSymbolTableRecord
100
AcDbLinetypeTableRecord
  2
ACAD_ISO05W100
 70
              64
  3
ISO long-dash double-dot ____ .. ____ .. ____ .
 72
              65
 73
               6
 40
33.0
 49
24.0
 74
               0
 49
-3.0
 74
               0
 49
0.0
 74
               0
 49
-3.0
 74
               0
 49
0.0
 74
               0
 49
-3.0
 74
               0
  0
LTYPE
  5
28
100
AcDbSymbolTableRecord
100
AcDbLinetypeTableRecord
  2
ACAD_ISO06W100
 70
              64
  3
ISO long-dash triple-dot ____ ... ____ ... ____
 72
              65
 73
               8
 40
36.0
 49
24.0
 74
               0
 49
-3.0
 74
               0
 49
0.0
 74
               0
 49
-3.0
 74
               0
 49
0.0
 74
               0
 49
-3.0
 74
               0
 49
0.0
 74
               0
 49
-3.0
 74
               0
  0
LTYPE
  5
29
100
AcDbSymbolTableRecord
100
AcDbLinetypeTableRecord
  2
ACAD_ISO07W100
 70
              64
  3
ISO dot . . . . . . . . . . . . . . . . . . . .
 72
              65
 73
               2
 40
3.0
 49
0.0
 74
               0
 49
-3.0
 74
               0
  0
LTYPE
  5
2A
100
AcDbSymbolTableRecord
100
AcDbLinetypeTableRecord
  2
ACAD_ISO08W100
 70
              64
  3
ISO long-dash short-dash ____ __ ____ __ ____ _
 72
              65
 73
               4
 40
36.0
 49
24.0
 74
               0
 49
-3.0
 74
               0
 49
6.0
 74
               0
 49
-3.0
 74
               0
  0
LTYPE
  5
2B
100
AcDbSymbolTableRecord
100
AcDbLinetypeTableRecord
  2
ACAD_ISO09W100
 70
              64
  3
ISO long-dash double-short-dash ____ __ __ ____
 72
              65
 73
               6
 40
45.0
 49
24.0
 74
               0
 49
-3.0
 74
               0
 49
6.0
 74
               0
 49
-3.0
 74
               0
 49
6.0
 74
               0
 49
-3.0
 74
               0
  0
LTYPE
  5
2C
100
AcDbSymbolTableRecord
100
AcDbLinetypeTableRecord
  2
ACAD_ISO10W100
 70
              64
  3
ISO dash dot __ . __ . __ . __ . __ . __ . __ .
 72
              65
 73
               4
 40
18.0
 49
12.0
 74
               0
 49
-3.0
 74
               0
 49
0.0
 74
               0
 49
-3.0
 74
               0
  0
LTYPE
  5
2D
100
AcDbSymbolTableRecord
100
AcDbLinetypeTableRecord
  2
ACAD_ISO11W100
 70
              64
  3
ISO double-dash dot __ __ . __ __ . __ __ . __ 
 72
              65
 73
               6
 40
33.0
 49
12.0
 74
               0
 49
-3.0
 74
               0
 49
12.0
 74
               0
 49
-3.0
 74
               0
 49
0.0
 74
               0
 49
-3.0
 74
               0
  0
LTYPE
  5
2E
100
AcDbSymbolTableRecord
100
AcDbLinetypeTableRecord
  2
ACAD_ISO12W100
 70
              64
  3
ISO dash double-dot __ . . __ . . __ . . __ . .
 72
              65
 73
               6
 40
21.0
 49
12.0
 74
               0
 49
-3.0
 74
               0
 49
0.0
 74
               0
 49
-3.0
 74
               0
 49
0.0
 74
               0
 49
-3.0
 74
               0
  0
LTYPE
  5
2F
100
AcDbSymbolTableRecord
100
AcDbLinetypeTableRecord
  2
ACAD_ISO13W100
 70
              64
  3
ISO double-dash double-dot __ __ . . __ __ . . 
 72
              65
 73
               8
 40
36.0
 49
12.0
 74
               0
 49
-3.0
 74
               0
 49
12.0
 74
               0
 49
-3.0
 74
               0
 49
0.0
 74
               0
 49
-3.0
 74
               0
 49
0.0
 74
               0
 49
-3.0
 74
               0
  0
LTYPE
  5
30
100
AcDbSymbolTableRecord
100
AcDbLinetypeTableRecord
  2
ACAD_ISO14W100
 70
              64
  3
ISO dash triple-dot __ . . . __ . . . __ . . . 
 72
              65
 73
               8
 40
24.0
 49
12.0
 74
               0
 49
-3.0
 74
               0
 49
0.0
 74
               0
 49
-3.0
 74
               0
 49
0.0
 74
               0
 49
-3.0
 74
               0
 49
0.0
 74
               0
 49
-3.0
 74
               0
  0
LTYPE
  5
31
100
AcDbSymbolTableRecord
100
AcDbLinetypeTableRecord
  2
ACAD_ISO15W100
 70
              64
  3
ISO double-dash double-dot __ __ . . __ __ . . 
 72
              65
 73
              10
 40
39.0
 49
12.0
 74
               0
 49
-3.0
 74
               0
 49
12.0
 74
               0
 49
-3.0
 74
               0
 49
0.0
 74
               0
 49
-3.0
 74
               0
 49
0.0
 74
               0
 49
-3.0
 74
               0
 49
0.0
 74
               0
 49
-3.0
 74
               0
  0
ENDTAB
  0
TABLE
  2
LAYER
  5
2
100
AcDbSymbolTable
 70
              16
  0
LAYER
  5
14
100
AcDbSymbolTableRecord
100
AcDbLayerTableRecord
  2
0
 70
               0
 62
               7
  6
Continuous
  0
LAYER
  5
35
100
AcDbSymbolTableRecord
100
AcDbLayerTableRecord
  2
Layer00001
 70
               0
 62
               7
  6
Continuous
  0
LAYER
  5
36
100
AcDbSymbolTableRecord
100
AcDbLayerTableRecord
  2
Layer00002
 70
               0
 62
               7
  6
Continuous
  0
LAYER
  5
37
100
AcDbSymbolTableRecord
100
AcDbLayerTableRecord
  2
Layer00003
 70
               0
 62
               7
  6
Continuous
  0
LAYER
  5
38
100
AcDbSymbolTableRecord
100
AcDbLayerTableRecord
  2
Layer00004
 70
               0
 62
               7
  6
Continuous
  0
LAYER
  5
39
100
AcDbSymbolTableRecord
100
AcDbLayerTableRecord
  2
Layer00005
 70
               0
 62
               7
  6
Continuous
  0
LAYER
  5
3A
100
AcDbSymbolTableRecord
100
AcDbLayerTableRecord
  2
Layer00006
 70
               0
 62
               7
  6
Continuous
  0
LAYER
  5
3B
100
AcDbSymbolTableRecord
100
AcDbLayerTableRecord
  2
Layer00007
 70
               0
 62
               7
  6
Continuous
  0
LAYER
  5
3C
100
AcDbSymbolTableRecord
100
AcDbLayerTableRecord
  2
Layer00008
 70
               0
 62
               7
  6
Continuous
  0
LAYER
  5
3D
100
AcDbSymbolTableRecord
100
AcDbLayerTableRecord
  2
Layer00009
 70
               0
 62
               7
  6
Continuous
  0
LAYER
  5
3E
100
AcDbSymbolTableRecord
100
AcDbLayerTableRecord
  2
Layer00010
 70
               0
 62
               7
  6
Continuous
  0
LAYER
  5
3F
100
AcDbSymbolTableRecord
100
AcDbLayerTableRecord
  2
Layer00011
 70
               0
 62
               7
  6
Continuous
  0
LAYER
  5
40
100
AcDbSymbolTableRecord
100
AcDbLayerTableRecord
  2
Layer00012
 70
               0
 62
               7
  6
Continuous
  0
LAYER
  5
41
100
AcDbSymbolTableRecord
100
AcDbLayerTableRecord
  2
Layer00013
 70
               0
 62
               7
  6
Continuous
  0
LAYER
  5
42
100
AcDbSymbolTableRecord
100
AcDbLayerTableRecord
  2
Layer00014
 70
               0
 62
               7
  6
Continuous
  0
LAYER
  5
43
100
AcDbSymbolTableRecord
100
AcDbLayerTableRecord
  2
Layer00015
 70
               0
 62
               7
  6
Continuous
  0
ENDTAB
  0
TABLE
  2
STYLE
  5
3
100
AcDbSymbolTable
 70
               4
  0
STYLE
  5
17
100
AcDbSymbolTableRecord
100
AcDbTextStyleTableRecord
  2
Standard
 70
               0
 40
0.0
 41
1.0
 50
0.0
 71
               0
 42
0.0
  3
txt.shx
  4
bigfont.shx
  0
STYLE
  5
32
100
AcDbSymbolTableRecord
100
AcDbTextStyleTableRecord
  2
STANDARD_T
 70
               4
 40
0.0
 41
1.0
 50
0.0
 71
               0
 42
0.0
  3
txt.shx
  4
bigfont.shx
  0
STYLE
  5
33
100
AcDbSymbolTableRecord
100
AcDbTextStyleTableRecord
  2
FontTableH_0
 70
               0
 40
0.0
 41
1.0
 50
0.0
 71
               0
 42
0.0
  3
MS Gothic.ttf
  4

1001
ACAD
1000
MS Gothic
1071
    32817
  0
STYLE
  5
34
100
AcDbSymbolTableRecord
100
AcDbTextStyleTableRecord
  2
FontTableV_0
 70
               0
 40
0.0
 41
1.0
 50
0.0
 71
               0
 42
0.0
  3
@MS Gothic.ttf
  4

1001
ACAD
1000
@MS Gothic
1071
    32817
  0
ENDTAB
  0
TABLE
  2
VIEW
  5
5
100
AcDbSymbolTable
 70
               0
  0
ENDTAB
  0
TABLE
  2
UCS
  5
6
100
AcDbSymbolTable
 70
               0
  0
ENDTAB
  0
TABLE
  2
APPID
  5
8
100
AcDbSymbolTable
 70
               1
  0
APPID
  5
16
100
AcDbSymbolTableRecord
100
AcDbRegAppTableRecord
  2
ACAD
 70
               0
  0
ENDTAB
  0
TABLE
  2
DIMSTYLE
  5
9
100
AcDbSymbolTable
 70
               1
  0
DIMSTYLE
105
18
100
AcDbSymbolTableRecord
100
AcDbDimStyleTableRecord
  2
Standard
 70
               0
  3

  4

  5

  6

  7

 40
1.0
 41
0.18
 42
0.0625
 43
0.38
 44
0.18
 45
0.0
 46
0.0
 47
0.0
 48
0.0
 71
               0
 72
               0
 73
               1
 74
               1
 75
               0
 76
               0
 77
               0
 78
               0
140
0.18
141
0.09
142
0.0
143
25.399999999999999
144
1.0
145
0.0
146
1.0
147
0.09
170
               0
171
               2
172
               0
173
               0
174
               0
175
               0
176
               0
177
               0
178
               0
270
               2
271
               4
272
               4
273
               2
274
               2
275
               0
280
               0
281
               0
282
               0
283
               1
284
               0
285
               0
286
               0
287
               0
288
               0
340
17
  0
ENDTAB
  0
TABLE
  2
BLOCK_RECORD
  5
1
100
AcDbSymbolTable
 70
               0
  0
BLOCK_RECORD
  5
A
100
AcDbSymbolTableRecord
100
AcDbBlockTableRecord
  2
*MODEL_SPACE
  0
BLOCK_RECORD
  5
B
100
AcDbSymbolTableRecord
100
AcDbBlockTableRecord
  2
*PAPER_SPACE
  0
ENDTAB
  0
ENDSEC
  0
SECTION
  2
BLOCKS
  0
BLOCK
  5
D
100
AcDbEntity
  8
0
100
AcDbBlockBegin
  2
*MODEL_SPACE
 70
               0
 10
0.0
 20
0.0
 30
0.0
  3
*MODEL_SPACE
  1

  0
ENDBLK
  5
E
100
AcDbEntity
  8
0
100
AcDbBlockEnd
  0
BLOCK
  5
F
100
AcDbEntity
 67
               1
  8
0
100
AcDbBlockBegin
  2
*PAPER_SPACE
 70
               0
 10
0.0
 20
0.0
 30
0.0
  3
*PAPER_SPACE
  1

  0
ENDBLK
  5
10
100
AcDbEntity
 67
               1
  8
0
100
AcDbBlockEnd
  0
ENDSEC
  0
SECTION
  2
ENTITIES
  0
LINE
  5
44
100
AcDbEntity
  8
0
  6
Continuous
 62
               4
100
AcDbLine
 10
249.60399032590078
 20
325.17240388086401
 30
0.0
 11
252.51442543376317
 21
313.53067399749392
 31
0.0
  0
LINE
  5
45
100
AcDbEntity
  8
0
  6
Continuous
 62
               4
100
AcDbLine
 10
252.51442543376317
 20
313.53067399749392
 30
0.0
 11
255.42484764606979
 21
301.88899569629979
 31
0.0
  0
LINE
  5
46
100
AcDbEntity
  8
0
  6
Continuous
 62
               4
100
AcDbLine
 10
263.91359133315478
 20
333.90368546670771
 30
0.0
 11
270.94712682109588
 21
305.76956900607644
 31
0.0
  0
LINE
  5
47
100
AcDbEntity
  8
0
  6
Continuous
 62
               4
100
AcDbLine
 10
249.60399300749737
 20
325.17240455126381
 30
0.0
 11
248.39131157856627
 21
330.02312587195462
 31
0.0
  0
LINE
  5
48
100
AcDbEntity
  8
0
  6
Continuous
 62
               4
100
AcDbLine
 10
248.39131157856627
 20
330.02312587195462
 30
0.0
 11
246.96034737077957
 21
335.74697751696152
 31
0.0
  0
LINE
  5
49
100
AcDbEntity
  8
0
  6
Continuous
 62
               7
100
AcDbLine
 10
303.71594806954045
 20
338.70037734699582
 30
0.0
 11
294.96992790081447
 21
324.14455542796151
 31
0.0
  0
LINE
  5
4A
100
AcDbEntity
  8
0
  6
Continuous
 62
               7
100
AcDbLine
 10
296.85166116359085
 20
336.98430562050856
 30
0.0
 11
288.10562698984614
 21
322.42846039320881
 31
0.0
  0
LINE
  5
4B
100
AcDbEntity
  8
0
  6
Continuous
 62
               7
100
AcDbLine
 10
289.98737425764136
 20
335.26823389402119
 30
0.0
 11
281.24133948172738
 21
320.71238766454343
 31
0.0
  0
LINE
  5
4C
100
AcDbEntity
  8
0
  6
Continuous
 62
               7
100
AcDbLine
 10
293.85530188536239
 20
311.49658204724545
 30
0.0
 11
281.46766727795244
 21
318.93982384574105
 31
0.0
  0
LINE
  5
4D
100
AcDbEntity
  8
0
  6
Continuous
 62
               7
100
AcDbLine
 10
300.71091002567488
 20
313.2104840823236
 30
0.0
 11
286.17351511807334
 21
321.9454321855531
 31
0.0
  0
LINE
  5
4E
100
AcDbEntity
  8
0
  6
Continuous
 62
               7
100
AcDbLine
 10
307.56652022719817
 20
314.92435992982354
 30
0.0
 11
293.02909969786054
 21
323.65934837722301
 31
0.0
  0
LINE
  5
4F
100
AcDbEntity
  8
0
  6
Continuous
 62
               7
100
AcDbLine
 10
283.14914820877334
 20
333.55865648452249
 30
0.0
 11
279.38083769519108
 21
327.28713461364163
 31
0.0
  0
LINE
  5
50
100
AcDbEntity
  8
0
  6
Continuous
 62
               7
100
AcDbLine
 10
286.99972036643118
 20
309.7826390673502
 30
0.0
 11
283.18374624732479
 21
312.07551418771283
 31
0.0
  0
LINE
  5
51
100
AcDbEntity
  8
0
  6
Continuous
 62
               7
100
AcDbLine
 10
248.38948163655988
 20
314.50405889050472
 30
0.0
 11
246.97202726831199
 21
312.14501866826191
 31
0.0
  0
LINE
  5
52
100
AcDbEntity
  8
0
  6
Continuous
 62
               7
100
AcDbLine
 10
246.67557850485946
 20
321.35966520573135
 30
0.0
 11
240.10773976019328
 21
310.42894593959653
 31
0.0
  0
LINE
  5
53
100
AcDbEntity
  8
0
  6
Continuous
 62
               7
100
AcDbLine
 10
251.53376848630398
 20
301.92692288713948
 30
0.0
 11
238.18430825587177
 21
309.94808782488082
 31
0.0
  0
LINE
  5
54
100
AcDbEntity
  8
0
  6
Continuous
 62
               7
100
AcDbLine
 10
249.81769493010609
 20
308.79121089248991
 30
0.0
 11
245.03991539653919
 21
311.66199046060621
 31
0.0
  0
LINE
  5
55
100
AcDbEntity
  8
0
  6
Continuous
 62
               7
100
AcDbLine
 10
242.01554848723924
 20
323.27521475957559
 30
0.0
 11
233.26952831851327
 21
308.71939284054116
 31
0.0
  0
LINE
  5
56
100
AcDbEntity
  8
0
  6
Continuous
 62
               7
100
AcDbLine
 10
235.15126158128965
 20
321.55914303308822
 30
0.0
 11
227.56085790603839
 21
308.92658993360948
 31
0.0
  0
LINE
  5
57
100
AcDbEntity
  8
0
  6
Continuous
 62
               7
100
AcDbLine
 10
228.28697467534016
 20
319.84307130660085
 30
0.0
 11
227.56085790603839
 21
318.63461006566132
 31
0.0
  0
LINE
  5
58
100
AcDbEntity
  8
0
  6
Continuous
 62
               7
100
AcDbLine
 10
232.15490230306108
 20
296.07141945982511
 30
0.0
 11
227.56085790603839
 21
298.83179982006021
 31
0.0
  0
LINE
  5
59
100
AcDbEntity
  8
0
  6
Continuous
 62
               7
100
AcDbLine
 10
239.01051044337356
 20
297.78532149490326
 30
0.0
 11
227.56085790603839
 21
304.66496680613699
 31
0.0
  0
LINE
  5
5A
100
AcDbEntity
  8
0
  6
Continuous
 62
               7
100
AcDbLine
 10
245.86612064489685
 20
299.49919734240331
 30
0.0
 11
231.32870011555934
 21
308.23418578980267
 31
0.0
  0
LINE
  5
5B
100
AcDbEntity
  8
0
  6
Continuous
 62
               6
100
AcDbLine
 10
461.9587890083277
 20
247.76481542817569
 30
0.0
 11
422.37697481735836
 21
237.86936188043305
 31
0.0
  0
LINE
  5
5C
100
AcDbEntity
  8
0
  6
Continuous
 62
               6
100
AcDbLine
 10
416.79865555717265
 20
241.21635343654449
 30
0.0
 11
413.06360690848317
 21
256.15654803130258
 31
0.0
  0
LINE
  5
5D
100
AcDbEntity
  8
0
  6
Continuous
 62
               6
100
AcDbLine
 10
413.06360690848317
 20
256.15654803130258
 30
0.0
 11
415.29493461255743
 21
256.71437995732117
 31
0.0
  0
LINE
  5
5E
100
AcDbEntity
  8
0
  6
Continuous
 62
               6
100
AcDbLine
 10
415.29493461255743
 20
256.71437995732117
 30
0.0
 11
419.02998326124691
 21
241.77418536256309
 31
0.0
  0
LINE
  5
5F
100
AcDbEntity
  8
0
  6
Continuous
 62
               6
100
AcDbLine
 10
421.81914289133977
 20
240.10068958450736
 30
0.0
 11
461.40095708230922
 21
249.99614313224978
 31
0.0
  0
LINE
  5
60
100
AcDbEntity
  8
0
  6
Continuous
 62
               6
100
AcDbLine
 10
463.074452860365
 20
252.78530276234258
 30
0.0
 11
441.0522180608059
 21
340.87424196057879
 31
0.0
  0
LINE
  5
61
100
AcDbEntity
  8
0
  6
Continuous
 62
               6
100
AcDbLine
 10
438.26305843071304
 20
342.54773773863445
 30
0.0
 11
398.68124423974359
 21
332.65228419089209
 31
0.0
  0
LINE
  5
62
100
AcDbEntity
  8
0
  6
Continuous
 62
               6
100
AcDbLine
 10
397.00774846168792
 20
329.86312456079912
 30
0.0
 11
400.74279711037741
 21
314.92292996604107
 31
0.0
  0
LINE
  5
63
100
AcDbEntity
  8
0
  6
Continuous
 62
               6
100
AcDbLine
 10
400.74279711037741
 20
314.92292996604107
 30
0.0
 11
398.51146940630315
 21
314.36509804002259
 31
0.0
  0
LINE
  5
64
100
AcDbEntity
  8
0
  6
Continuous
 62
               6
100
AcDbLine
 10
398.51146940630315
 20
314.36509804002259
 30
0.0
 11
394.77642075761355
 21
329.30529263478053
 31
0.0
  0
LINE
  5
65
100
AcDbEntity
  8
0
  6
Continuous
 62
               6
100
AcDbLine
 10
398.123412313725
 20
334.88361189496635
 30
0.0
 11
437.70522650469456
 21
344.77906544270871
 31
0.0
  0
LINE
  5
66
100
AcDbEntity
  8
0
  6
Continuous
 62
               6
100
AcDbLine
 10
443.28354576488016
 20
341.43207388659727
 30
0.0
 11
465.30578056443926
 21
253.34313468836118
 31
0.0
  0
LINE
  5
67
100
AcDbEntity
  8
0
  6
Continuous
 62
               3
100
AcDbLine
 10
227.56085790603839
 20
294.92299194969615
 30
0.0
 11
468.31938254888473
 21
355.11262311040781
 31
0.0
  0
LINE
  5
68
100
AcDbEntity
  8
0
  6
DASHDOT
 62
               4
100
AcDbLine
 10
468.31938254888473
 20
429.12824452175374
 30
0.0
 11
468.31938254888473
 21
228.73943568522665
 31
0.0
  0
LINE
  5
69
100
AcDbEntity
  8
0
  6
Continuous
 62
               3
100
AcDbLine
 10
227.56085790603839
 20
307.29227895622279
 30
0.0
 11
468.31938254888473
 21
367.48193998726077
 31
0.0
  0
LINE
  5
6A
100
AcDbEntity
  8
0
  6
Continuous
 62
               3
100
AcDbLine
 10
468.31941039001924
 20
355.11267550808969
 30
0.0
 11
465.40895504844877
 21
366.75433311215176
 31
0.0
  0
LINE
  5
6B
100
AcDbEntity
  8
0
  6
Continuous
 62
               3
100
AcDbLine
 10
227.56085790603839
 20
319.66162570340208
 30
0.0
 11
465.40895504844866
 21
379.12364998900472
 31
0.0
  0
LINE
  5
6C
100
AcDbEntity
  8
0
  6
Continuous
 62
               3
100
AcDbLine
 10
468.31938254888473
 20
367.48193998726077
 30
0.0
 11
465.40895504844866
 21
379.12364998900472
 31
0.0
  0
LINE
  5
6D
100
AcDbEntity
  8
0
  6
DASHED
 62
               6
100
AcDbLine
 10
227.56085790603839
 20
321.72317851621102
 30
0.0
 11
464.92388379837598
 21
381.06393498929532
 31
0.0
  0
LINE
  5
6E
100
AcDbEntity
  8
0
  6
Continuous
 62
               2
100
AcDbLine
 10
227.56085790603839
 20
324.81550773542432
 30
0.0
 11
464.19627692326696
 21
383.97436248973139
 31
0.0
  0
LINE
  5
6F
100
AcDbEntity
  8
0
  6
Continuous
 62
               4
100
AcDbLine
 10
391.19305378733088
 20
367.78510951855611
 30
0.0
 11
463.7112056731944
 21
385.91464749002211
 31
0.0
  0
LINE
  5
70
100
AcDbEntity
  8
0
  6
Continuous
 62
               2
100
AcDbLine
 10
372.31704670725276
 20
365.12763881543111
 30
0.0
 11
468.31938254888473
 21
389.12824452175352
 31
0.0
  0
LINE
  5
71
100
AcDbEntity
  8
0
  6
Continuous
 62
               4
100
AcDbLine
 10
391.19305378733088
 20
367.78510951855611
 30
0.0
 11
372.67200802838863
 21
364.53517008951161
 31
0.0
  0
LINE
  5
72
100
AcDbEntity
  8
0
  6
Continuous
 62
               2
100
AcDbLine
 10
372.73215039179252
 20
363.08536182568281
 30
0.0
 11
388.50675487514206
 21
365.5673701809024
 31
0.0
  0
LINE
  5
73
100
AcDbEntity
  8
0
  6
Continuous
 62
               6
100
AcDbLine
 10
392.16368866510493
 20
368.02776823799962
 30
0.0
 11
392.64875991517761
 21
366.08748323770902
 31
0.0
  0
LINE
  5
74
100
AcDbEntity
  8
0
  6
Continuous
 62
               6
100
AcDbLine
 10
463.31802769852618
 20
385.81635299635496
 30
0.0
 11
461.86281394830826
 21
383.39099674599169
 31
0.0
  0
LINE
  5
75
100
AcDbEntity
  8
0
  6
Continuous
 62
               6
100
AcDbLine
 10
460.57405033624605
 20
385.13035865578496
 30
0.0
 11
459.11883658602812
 21
382.70500240542168
 31
0.0
  0
LINE
  5
76
100
AcDbEntity
  8
0
  6
Continuous
 62
               6
100
AcDbLine
 10
457.83007297396591
 20
384.44436431521495
 30
0.0
 11
456.37485922374788
 21
382.01900806485156
 31
0.0
  0
LINE
  5
77
100
AcDbEntity
  8
0
  6
Continuous
 62
               6
100
AcDbLine
 10
455.08609561168578
 20
383.75836997464495
 30
0.0
 11
453.63088186146774
 21
381.33301372428156
 31
0.0
  0
LINE
  5
78
100
AcDbEntity
  8
0
  6
Continuous
 62
               6
100
AcDbLine
 10
452.34211824940564
 20
383.07237563407483
 30
0.0
 11
450.88690449918761
 21
380.64701938371155
 31
0.0
  0
LINE
  5
79
100
AcDbEntity
  8
0
  6
Continuous
 62
               6
100
AcDbLine
 10
449.5981408871254
 20
382.38638129350471
 30
0.0
 11
448.14292713690747
 21
379.96102504314155
 31
0.0
  0
LINE
  5
7A
100
AcDbEntity
  8
0
  6
Continuous
 62
               6
100
AcDbLine
 10
446.85416352484526
 20
381.70038695293482
 30
0.0
 11
445.39894977462734
 21
379.27503070257143
 31
0.0
  0
LINE
  5
7B
100
AcDbEntity
  8
0
  6
Continuous
 62
               6
100
AcDbLine
 10
444.11018616256513
 20
381.01439261236482
 30
0.0
 11
442.65497241234721
 21
378.58903636200142
 31
0.0
  0
LINE
  5
7C
100
AcDbEntity
  8
0
  6
Continuous
 62
               6
100
AcDbLine
 10
441.36620880028499
 20
380.3283982717947
 30
0.0
 11
439.91099505006707
 21
377.90304202143142
 31
0.0
  0
LINE
  5
7D
100
AcDbEntity
  8
0
  6
Continuous
 62
               6
100
AcDbLine
 10
438.62223143800486
 20
379.64240393122469
 30
0.0
 11
437.16701768778694
 21
377.21704768086141
 31
0.0
  0
LINE
  5
7E
100
AcDbEntity
  8
0
  6
Continuous
 62
               6
100
AcDbLine
 10
435.87825407572473
 20
378.95640959065469
 30
0.0
 11
434.42304032550669
 21
376.53105334029141
 31
0.0
  0
LINE
  5
7F
100
AcDbEntity
  8
0
  6
Continuous
 62
               6
100
AcDbLine
 10
433.13427671344459
 20
378.27041525008457
 30
0.0
 11
431.67906296322667
 21
375.84505899972129
 31
0.0
  0
LINE
  5
80
100
AcDbEntity
  8
0
  6
Continuous
 62
               6
100
AcDbLine
 10
430.39029935116446
 20
377.58442090951456
 30
0.0
 11
428.93508560094642
 21
375.15906465915128
 31
0.0
  0
LINE
  5
81
100
AcDbEntity
  8
0
  6
Continuous
 62
               6
100
AcDbLine
 10
427.64632198888432
 20
376.89842656894456
 30
0.0
 11
426.19110823866629
 21
374.47307031858116
 31
0.0
  0
LINE
  5
82
100
AcDbEntity
  8
0
  6
Continuous
 62
               6
100
AcDbLine
 10
424.90234462660419
 20
376.21243222837455
 30
0.0
 11
423.44713087638615
 21
373.78707597801116
 31
0.0
  0
LINE
  5
83
100
AcDbEntity
  8
0
  6
Continuous
 62
               6
100
AcDbLine
 10
422.15836726432406
 20
375.52643788780443
 30
0.0
 11
420.70315351410602
 21
373.10108163744115
 31
0.0
  0
LINE
  5
84
100
AcDbEntity
  8
0
  6
Continuous
 62
               6
100
AcDbLine
 10
419.41438990204392
 20
374.84044354723432
 30
0.0
 11
417.95917615182589
 21
372.41508729687115
 31
0.0
  0
LINE
  5
85
100
AcDbEntity
  8
0
  6
Continuous
 62
               6
100
AcDbLine
 10
416.67041253976367
 20
374.15444920666431
 30
0.0
 11
415.21519878954575
 21
371.72909295630103
 31
0.0
  0
LINE
  5
86
100
AcDbEntity
  8
0
  6
Continuous
 62
               6
100
AcDbLine
 10
413.92643517748354
 20
373.46845486609442
 30
0.0
 11
412.47122142726562
 21
371.04309861573103
 31
0.0
  0
LINE
  5
87
100
AcDbEntity
  8
0
  6
Continuous
 62
               6
100
AcDbLine
 10
411.18245781520341
 20
372.7824605255243
 30
0.0
 11
409.72724406498548
 21
370.35710427516102
 31
0.0
  0
LINE
  5
88
100
AcDbEntity
  8
0
  6
Continuous
 62
               6
100
AcDbLine
 10
408.43848045292327
 20
372.09646618495429
 30
0.0
 11
406.98326670270535
 21
369.67110993459102
 31
0.0
  0
LINE
  5
89
100
AcDbEntity
  8
0
  6
Continuous
 62
               6
100
AcDbLine
 10
405.69450309064314
 20
371.41047184438429
 30
0.0
 11
404.2392893404251
 21
368.98511559402101
 31
0.0
  0
LINE
  5
8A
100
AcDbEntity
  8
0
  6
Continuous
 62
               6
100
AcDbLine
 10
402.950525728363
 20
370.72447750381417
 30
0.0
 11
401.49531197814508
 21
368.29912125345089
 31
0.0
  0
LINE
  5
8B
100
AcDbEntity
  8
0
  6
Continuous
 62
               6
100
AcDbLine
 10
400.20654836608287
 20
370.03848316324417
 30
0.0
 11
398.75133461586495
 21
367.61312691288089
 31
0.0
  0
LINE
  5
8C
100
AcDbEntity
  8
0
  6
Continuous
 62
               6
100
AcDbLine
 10
397.46257100380274
 20
369.35248882267416
 30
0.0
 11
396.0073572535847
 21
366.92713257231088
 31
0.0
  0
LINE
  5
8D
100
AcDbEntity
  8
0
  6
Continuous
 62
               6
100
AcDbLine
 10
394.7185936415226
 20
368.66649448210416
 30
0.0
 11
393.26337989130457
 21
366.24113823174076
 31
0.0
  0
LINE
  5
8E
100
AcDbEntity
  8
0
  6
Continuous
 62
               6
100
AcDbLine
 10
474.67997608944177
 20
247.76481542817575
 30
0.0
 11
514.26179028041122
 21
237.86936188043316
 31
0.0
  0
LINE
  5
8F
100
AcDbEntity
  8
0
  6
Continuous
 62
               6
100
AcDbLine
 10
519.84010954059681
 20
241.21635343654455
 30
0.0
 11
523.57515818928641
 21
256.15654803130258
 31
0.0
  0
LINE
  5
90
100
AcDbEntity
  8
0
  6
Continuous
 62
               6
100
AcDbLine
 10
523.57515818928641
 20
256.15654803130258
 30
0.0
 11
521.34383048521215
 21
256.71437995732117
 31
0.0
  0
LINE
  5
91
100
AcDbEntity
  8
0
  6
Continuous
 62
               6
100
AcDbLine
 10
521.34383048521215
 20
256.71437995732117
 30
0.0
 11
517.60878183652255
 21
241.77418536256309
 31
0.0
  0
LINE
  5
92
100
AcDbEntity
  8
0
  6
Continuous
 62
               6
100
AcDbLine
 10
514.81962220642981
 20
240.10068958450748
 30
0.0
 11
475.23780801546025
 21
249.99614313224984
 31
0.0
  0
LINE
  5
93
100
AcDbEntity
  8
0
  6
Continuous
 62
               6
100
AcDbLine
 10
473.56431223740458
 20
252.78530276234264
 30
0.0
 11
495.58654703696357
 21
340.87424196057879
 31
0.0
  0
LINE
  5
94
100
AcDbEntity
  8
0
  6
Continuous
 62
               6
100
AcDbLine
 10
498.37570666705642
 20
342.54773773863445
 30
0.0
 11
537.95752085802599
 21
332.65228419089209
 31
0.0
  0
LINE
  5
95
100
AcDbEntity
  8
0
  6
Continuous
 62
               6
100
AcDbLine
 10
539.63101663608165
 20
329.86312456079924
 30
0.0
 11
535.89596798739217
 21
314.92292996604118
 31
0.0
  0
LINE
  5
96
100
AcDbEntity
  8
0
  6
Continuous
 62
               6
100
AcDbLine
 10
535.89596798739217
 20
314.92292996604118
 30
0.0
 11
538.12729569146643
 21
314.36509804002259
 31
0.0
  0
LINE
  5
97
100
AcDbEntity
  8
0
  6
Continuous
 62
               6
100
AcDbLine
 10
538.12729569146643
 20
314.36509804002259
 30
0.0
 11
541.86234434015591
 21
329.30529263478064
 31
0.0
  0
LINE
  5
98
100
AcDbEntity
  8
0
  6
Continuous
 62
               6
100
AcDbLine
 10
538.51535278404447
 20
334.88361189496635
 30
0.0
 11
498.93353859307501
 21
344.77906544270871
 31
0.0
  0
LINE
  5
99
100
AcDbEntity
  8
0
  6
Continuous
 62
               6
100
AcDbLine
 10
493.35521933288931
 20
341.43207388659738
 30
0.0
 11
471.33298453333032
 21
253.34313468836118
 31
0.0
  0
LINE
  5
9A
100
AcDbEntity
  8
0
  6
Continuous
 62
               3
100
AcDbLine
 10
689.67505718882535
 20
299.77370445042271
 30
0.0
 11
468.31938254888473
 21
355.11262311040781
 31
0.0
  0
LINE
  5
9B
100
AcDbEntity
  8
0
  6
Continuous
 62
               3
100
AcDbLine
 10
689.67505718882535
 20
312.14302132727579
 30
0.0
 11
468.31938254888473
 21
367.48193998726077
 31
0.0
  0
LINE
  5
9C
100
AcDbEntity
  8
0
  6
Continuous
 62
               3
100
AcDbLine
 10
468.31938254888473
 20
355.11262311040781
 30
0.0
 11
471.22981004932069
 21
366.75433311215176
 31
0.0
  0
LINE
  5
9D
100
AcDbEntity
  8
0
  6
Continuous
 62
               3
100
AcDbLine
 10
689.67505718882535
 20
324.51233820412875
 30
0.0
 11
471.2298100493208
 21
379.12364998900472
 31
0.0
  0
LINE
  5
9E
100
AcDbEntity
  8
0
  6
Continuous
 62
               3
100
AcDbLine
 10
468.31938254888473
 20
367.48193998726077
 30
0.0
 11
471.2298100493208
 21
379.12364998900472
 31
0.0
  0
LINE
  5
9F
100
AcDbEntity
  8
0
  6
DASHED
 62
               6
100
AcDbLine
 10
689.67505718882535
 20
326.57389101693758
 30
0.0
 11
471.71488129939348
 21
381.06393498929532
 31
0.0
  0
LINE
  5
A0
100
AcDbEntity
  8
0
  6
Continuous
 62
               2
100
AcDbLine
 10
689.67505718882535
 20
329.66622023615088
 30
0.0
 11
472.4424881745025
 21
383.97436248973139
 31
0.0
  0
LINE
  5
A1
100
AcDbEntity
  8
0
  6
Continuous
 62
               4
100
AcDbLine
 10
545.44571131043858
 20
367.78510951855611
 30
0.0
 11
472.92755942457518
 21
385.91464749002211
 31
0.0
  0
LINE
  5
A2
100
AcDbEntity
  8
0
  6
Continuous
 62
               2
100
AcDbLine
 10
564.32171632478912
 20
365.12766107777742
 30
0.0
 11
468.31938254888473
 21
389.12824452175352
 31
0.0
  0
LINE
  5
A3
100
AcDbEntity
  8
0
  6
Continuous
 62
               4
100
AcDbLine
 10
545.44571131043858
 20
367.78510951855611
 30
0.0
 11
563.96675706938095
 21
364.53517008951161
 31
0.0
  0
LINE
  5
A4
100
AcDbEntity
  8
0
  6
Continuous
 62
               2
100
AcDbLine
 10
563.90661470597706
 20
363.08536182568281
 30
0.0
 11
548.13201022262751
 21
365.5673701809024
 31
0.0
  0
LINE
  5
A5
100
AcDbEntity
  8
0
  6
Continuous
 62
               6
100
AcDbLine
 10
544.47507643266454
 20
368.02776823799962
 30
0.0
 11
543.99000518259197
 21
366.08748323770902
 31
0.0
  0
LINE
  5
A6
100
AcDbEntity
  8
0
  6
Continuous
 62
               6
100
AcDbLine
 10
473.32073739924328
 20
385.81635299635496
 30
0.0
 11
474.77595114946132
 21
383.39099674599169
 31
0.0
  0
LINE
  5
A7
100
AcDbEntity
  8
0
  6
Continuous
 62
               6
100
AcDbLine
 10
476.06471476152342
 20
385.13035865578496
 30
0.0
 11
477.51992851174145
 21
382.70500240542168
 31
0.0
  0
LINE
  5
A8
100
AcDbEntity
  8
0
  6
Continuous
 62
               6
100
AcDbLine
 10
478.80869212380367
 20
384.44436431521495
 30
0.0
 11
480.26390587402159
 21
382.01900806485156
 31
0.0
  0
LINE
  5
A9
100
AcDbEntity
  8
0
  6
Continuous
 62
               6
100
AcDbLine
 10
481.5526694860838
 20
383.75836997464495
 30
0.0
 11
483.00788323630172
 21
381.33301372428156
 31
0.0
  0
LINE
  5
AA
100
AcDbEntity
  8
0
  6
Continuous
 62
               6
100
AcDbLine
 10
484.29664684836393
 20
383.07237563407483
 30
0.0
 11
485.75186059858186
 21
380.64701938371155
 31
0.0
  0
LINE
  5
AB
100
AcDbEntity
  8
0
  6
Continuous
 62
               6
100
AcDbLine
 10
487.04062421064407
 20
382.38638129350471
 30
0.0
 11
488.49583796086199
 21
379.96102504314155
 31
0.0
  0
LINE
  5
AC
100
AcDbEntity
  8
0
  6
Continuous
 62
               6
100
AcDbLine
 10
489.7846015729242
 20
381.70038695293482
 30
0.0
 11
491.23981532314224
 21
379.27503070257143
 31
0.0
  0
LINE
  5
AD
100
AcDbEntity
  8
0
  6
Continuous
 62
               6
100
AcDbLine
 10
492.52857893520434
 20
381.01439261236482
 30
0.0
 11
493.98379268542237
 21
378.58903636200142
 31
0.0
  0
LINE
  5
AE
100
AcDbEntity
  8
0
  6
Continuous
 62
               6
100
AcDbLine
 10
495.27255629748447
 20
380.3283982717947
 30
0.0
 11
496.72777004770251
 21
377.90304202143142
 31
0.0
  0
LINE
  5
AF
100
AcDbEntity
  8
0
  6
Continuous
 62
               6
100
AcDbLine
 10
498.0165336597646
 20
379.64240393122469
 30
0.0
 11
499.47174740998264
 21
377.21704768086141
 31
0.0
  0
LINE
  5
B0
100
AcDbEntity
  8
0
  6
Continuous
 62
               6
100
AcDbLine
 10
500.76051102204474
 20
378.95640959065469
 30
0.0
 11
502.21572477226277
 21
376.53105334029141
 31
0.0
  0
LINE
  5
B1
100
AcDbEntity
  8
0
  6
Continuous
 62
               6
100
AcDbLine
 10
503.50448838432487
 20
378.27041525008457
 30
0.0
 11
504.95970213454291
 21
375.84505899972129
 31
0.0
  0
LINE
  5
B2
100
AcDbEntity
  8
0
  6
Continuous
 62
               6
100
AcDbLine
 10
506.24846574660501
 20
377.58442090951456
 30
0.0
 11
507.70367949682304
 21
375.15906465915128
 31
0.0
  0
LINE
  5
B3
100
AcDbEntity
  8
0
  6
Continuous
 62
               6
100
AcDbLine
 10
508.99244310888525
 20
376.89842656894456
 30
0.0
 11
510.44765685910318
 21
374.47307031858116
 31
0.0
  0
LINE
  5
B4
100
AcDbEntity
  8
0
  6
Continuous
 62
               6
100
AcDbLine
 10
511.73642047116527
 20
376.21243222837455
 30
0.0
 11
513.19163422138331
 21
373.78707597801116
 31
0.0
  0
LINE
  5
B5
100
AcDbEntity
  8
0
  6
Continuous
 62
               6
100
AcDbLine
 10
514.48039783344552
 20
375.52643788780443
 30
0.0
 11
515.93561158366344
 21
373.10108163744115
 31
0.0
  0
LINE
  5
B6
100
AcDbEntity
  8
0
  6
Continuous
 62
               6
100
AcDbLine
 10
517.22437519572566
 20
374.84044354723432
 30
0.0
 11
518.67958894594358
 21
372.41508729687115
 31
0.0
  0
LINE
  5
B7
100
AcDbEntity
  8
0
  6
Continuous
 62
               6
100
AcDbLine
 10
519.96835255800579
 20
374.15444920666431
 30
0.0
 11
521.42356630822371
 21
371.72909295630103
 31
0.0
  0
LINE
  5
B8
100
AcDbEntity
  8
0
  6
Continuous
 62
               6
100
AcDbLine
 10
522.71232992028592
 20
373.46845486609442
 30
0.0
 11
524.16754367050396
 21
371.04309861573091
 31
0.0
  0
LINE
  5
B9
100
AcDbEntity
  8
0
  6
Continuous
 62
               6
100
AcDbLine
 10
525.45630728256606
 20
372.7824605255243
 30
0.0
 11
526.91152103278409
 21
370.35710427516102
 31
0.0
  0
LINE
  5
BA
100
AcDbEntity
  8
0
  6
Continuous
 62
               6
100
AcDbLine
 10
528.20028464484631
 20
372.09646618495429
 30
0.0
 11
529.65549839506423
 21
369.67110993459102
 31
0.0
  0
LINE
  5
BB
100
AcDbEntity
  8
0
  6
Continuous
 62
               6
100
AcDbLine
 10
530.94426200712633
 20
371.41047184438429
 30
0.0
 11
532.39947575734436
 21
368.98511559402101
 31
0.0
  0
LINE
  5
BC
100
AcDbEntity
  8
0
  6
Continuous
 62
               6
100
AcDbLine
 10
533.68823936940657
 20
370.72447750381417
 30
0.0
 11
535.1434531196245
 21
368.29912125345089
 31
0.0
  0
LINE
  5
BD
100
AcDbEntity
  8
0
  6
Continuous
 62
               6
100
AcDbLine
 10
536.43221673168659
 20
370.03848316324417
 30
0.0
 11
537.88743048190463
 21
367.61312691288089
 31
0.0
  0
LINE
  5
BE
100
AcDbEntity
  8
0
  6
Continuous
 62
               6
100
AcDbLine
 10
539.17619409396684
 20
369.35248882267416
 30
0.0
 11
540.63140784418488
 21
366.92713257231077
 31
0.0
  0
LINE
  5
BF
100
AcDbEntity
  8
0
  6
Continuous
 62
               6
100
AcDbLine
 10
541.92017145624686
 20
368.66649448210416
 30
0.0
 11
543.3753852064649
 21
366.24113823174076
 31
0.0
  0
LINE
  5
C0
100
AcDbEntity
  8
0
  6
Continuous
 62
               7
100
AcDbLine
 10
467.87785577970283
 20
369.24804706398862
 30
0.0
 11
466.55103969247182
 21
367.03985427315746
 31
0.0
  0
LINE
  5
C1
100
AcDbEntity
  8
0
  6
Continuous
 62
               7
100
AcDbLine
 10
466.16395374462468
 20
376.10365520430111
 30
0.0
 11
459.68675278652222
 21
365.3237825466702
 31
0.0
  0
LINE
  5
C2
100
AcDbEntity
  8
0
  6
Continuous
 62
               7
100
AcDbLine
 10
461.56848604929871
 20
378.16353273921726
 30
0.0
 11
452.82246588057274
 21
363.60771082018272
 31
0.0
  0
LINE
  5
C3
100
AcDbEntity
  8
0
  6
Continuous
 62
               7
100
AcDbLine
 10
454.70419914334911
 20
376.44746101272978
 30
0.0
 11
445.95817897462314
 21
361.89163909369535
 31
0.0
  0
LINE
  5
C4
100
AcDbEntity
  8
0
  6
Continuous
 62
               7
100
AcDbLine
 10
447.83991223739963
 20
374.73138928624252
 30
0.0
 11
439.09389206867354
 21
360.17556736720798
 31
0.0
  0
LINE
  5
C5
100
AcDbEntity
  8
0
  6
Continuous
 62
               7
100
AcDbLine
 10
440.97562533145003
 20
373.01531755975492
 30
0.0
 11
432.22960516272406
 21
358.4594956407206
 31
0.0
  0
LINE
  5
C6
100
AcDbEntity
  8
0
  6
Continuous
 62
               7
100
AcDbLine
 10
434.11133842550043
 20
371.29924583326766
 30
0.0
 11
425.36531825677446
 21
356.74342391423312
 31
0.0
  0
LINE
  5
C7
100
AcDbEntity
  8
0
  6
Continuous
 62
               7
100
AcDbLine
 10
427.24705151955129
 20
369.58317410678029
 30
0.0
 11
418.50103135082531
 21
355.02735218774575
 31
0.0
  0
LINE
  5
C8
100
AcDbEntity
  8
0
  6
Continuous
 62
               7
100
AcDbLine
 10
420.38276461360169
 20
367.86710238029292
 30
0.0
 11
411.63674444487572
 21
353.31128046125838
 31
0.0
  0
LINE
  5
C9
100
AcDbEntity
  8
0
  6
Continuous
 62
               7
100
AcDbLine
 10
413.51847770765221
 20
366.15103065380544
 30
0.0
 11
404.77245753892612
 21
351.59520873477101
 31
0.0
  0
LINE
  5
CA
100
AcDbEntity
  8
0
  6
Continuous
 62
               7
100
AcDbLine
 10
406.65419080170261
 20
364.43495892731806
 30
0.0
 11
397.90817063297652
 21
349.87913700828352
 31
0.0
  0
LINE
  5
CB
100
AcDbEntity
  8
0
  6
Continuous
 62
               7
100
AcDbLine
 10
399.78990389575301
 20
362.71888720083069
 30
0.0
 11
391.04388372702704
 21
348.16306528179626
 31
0.0
  0
LINE
  5
CC
100
AcDbEntity
  8
0
  6
Continuous
 62
               7
100
AcDbLine
 10
392.92561698980342
 20
361.00281547434332
 30
0.0
 11
384.17959682107744
 21
346.44699355530878
 31
0.0
  0
LINE
  5
CD
100
AcDbEntity
  8
0
  6
Continuous
 62
               7
100
AcDbLine
 10
386.06133150798246
 20
359.28673647449358
 30
0.0
 11
377.31530991512784
 21
344.73092182882141
 31
0.0
  0
LINE
  5
CE
100
AcDbEntity
  8
0
  6
Continuous
 62
               7
100
AcDbLine
 10
379.19704317790433
 20
357.57067202136858
 30
0.0
 11
370.45102300917836
 21
343.01485010233392
 31
0.0
  0
LINE
  5
CF
100
AcDbEntity
  8
0
  6
Continuous
 62
               7
100
AcDbLine
 10
372.33275627195474
 20
355.85460029488121
 30
0.0
 11
363.58673610322876
 21
341.29877837584667
 31
0.0
  0
LINE
  5
D0
100
AcDbEntity
  8
0
  6
Continuous
 62
               7
100
AcDbLine
 10
365.46846936600514
 20
354.13852856839372
 30
0.0
 11
356.72244919727916
 21
339.5827066493593
 31
0.0
  0
LINE
  5
D1
100
AcDbEntity
  8
0
  6
Continuous
 62
               7
100
AcDbLine
 10
358.60418246005554
 20
352.42245684190635
 30
0.0
 11
349.85816229132956
 21
337.86663492287181
 31
0.0
  0
LINE
  5
D2
100
AcDbEntity
  8
0
  6
Continuous
 62
               7
100
AcDbLine
 10
351.73989555410606
 20
350.70638511541898
 30
0.0
 11
342.99387538538008
 21
336.15056319638444
 31
0.0
  0
LINE
  5
D3
100
AcDbEntity
  8
0
  6
Continuous
 62
               7
100
AcDbLine
 10
344.87560864815646
 20
348.99031338893161
 30
0.0
 11
336.12958847943037
 21
334.43449146989707
 31
0.0
  0
LINE
  5
D4
100
AcDbEntity
  8
0
  6
Continuous
 62
               7
100
AcDbLine
 10
338.01132174220686
 20
347.27424166244413
 30
0.0
 11
329.26530157348066
 21
332.7184197434097
 31
0.0
  0
LINE
  5
D5
100
AcDbEntity
  8
0
  6
Continuous
 62
               7
100
AcDbLine
 10
331.14703483625715
 20
345.55816993595676
 30
0.0
 11
322.40101466753106
 21
331.00234801692221
 31
0.0
  0
LINE
  5
D6
100
AcDbEntity
  8
0
  6
Continuous
 62
               7
100
AcDbLine
 10
324.28274793030755
 20
343.84209820946938
 30
0.0
 11
315.53672776158157
 21
329.28627629043496
 31
0.0
  0
LINE
  5
D7
100
AcDbEntity
  8
0
  6
Continuous
 62
               7
100
AcDbLine
 10
317.41846102435795
 20
342.12602648298201
 30
0.0
 11
308.67242685061325
 21
327.57018125568214
 31
0.0
  0
LINE
  5
D8
100
AcDbEntity
  8
0
  6
Continuous
 62
               7
100
AcDbLine
 10
310.55417411840835
 20
340.40995475649453
 30
0.0
 11
301.80813934249448
 21
325.85410852701699
 31
0.0
  0
LINE
  5
D9
100
AcDbEntity
  8
0
  6
Continuous
 62
               7
100
AcDbLine
 10
314.42210174612939
 20
316.6383029097189
 30
0.0
 11
299.88470783817309
 21
325.37325041230116
 31
0.0
  0
LINE
  5
DA
100
AcDbEntity
  8
0
  6
Continuous
 62
               7
100
AcDbLine
 10
321.27770988644187
 20
318.35220494479705
 30
0.0
 11
306.74031497884039
 21
327.08715304802655
 31
0.0
  0
LINE
  5
DB
100
AcDbEntity
  8
0
  6
Continuous
 62
               7
100
AcDbLine
 10
328.13332008796516
 20
320.06608079229699
 30
0.0
 11
313.59589955862759
 21
328.80106923969646
 31
0.0
  0
LINE
  5
DC
100
AcDbEntity
  8
0
  6
Continuous
 62
               7
100
AcDbLine
 10
334.98892616706678
 20
321.78000901495324
 30
0.0
 11
320.45150769894008
 21
330.51497127477461
 31
0.0
  0
LINE
  5
DD
100
AcDbEntity
  8
0
  6
Continuous
 62
               7
100
AcDbLine
 10
341.84453430737926
 20
323.49391105003139
 30
0.0
 11
327.30711583925256
 21
332.22887330985264
 31
0.0
  0
LINE
  5
DE
100
AcDbEntity
  8
0
  6
Continuous
 62
               7
100
AcDbLine
 10
348.70014244769175
 20
325.20781308510942
 30
0.0
 11
334.16272397956504
 21
333.94277534493079
 31
0.0
  0
LINE
  5
DF
100
AcDbEntity
  8
0
  6
Continuous
 62
               7
100
AcDbLine
 10
355.55575058800417
 20
326.92171512018757
 30
0.0
 11
341.01833211987758
 21
335.65667738000883
 31
0.0
  0
LINE
  5
E0
100
AcDbEntity
  8
0
  6
Continuous
 62
               7
100
AcDbLine
 10
362.41135872831671
 20
328.63561715526572
 30
0.0
 11
347.87394026018995
 21
337.37057941508698
 31
0.0
  0
LINE
  5
E1
100
AcDbEntity
  8
0
  6
Continuous
 62
               7
100
AcDbLine
 10
369.26696686862908
 20
330.34951919034387
 30
0.0
 11
354.72954840050249
 21
339.08448145016501
 31
0.0
  0
LINE
  5
E2
100
AcDbEntity
  8
0
  6
Continuous
 62
               7
100
AcDbLine
 10
376.12257500894157
 20
332.06342122542202
 30
0.0
 11
361.58515654081486
 21
340.79838348524328
 31
0.0
  0
LINE
  5
E3
100
AcDbEntity
  8
0
  6
Continuous
 62
               7
100
AcDbLine
 10
382.97818314925405
 20
333.77732326050005
 30
0.0
 11
368.44076468112735
 21
342.51228552032131
 31
0.0
  0
LINE
  5
E4
100
AcDbEntity
  8
0
  6
Continuous
 62
               7
100
AcDbLine
 10
389.83379128956653
 20
335.4912252955782
 30
0.0
 11
375.29637282143983
 21
344.22618755539946
 31
0.0
  0
LINE
  5
E5
100
AcDbEntity
  8
0
  6
Continuous
 62
               7
100
AcDbLine
 10
396.68939942987902
 20
337.20512733065635
 30
0.0
 11
382.15198096175232
 21
345.94008959047761
 31
0.0
  0
LINE
  5
E6
100
AcDbEntity
  8
0
  6
Continuous
 62
               7
100
AcDbLine
 10
403.5450075701915
 20
338.9190293657345
 30
0.0
 11
389.0075891020648
 21
347.65399162555576
 31
0.0
  0
LINE
  5
E7
100
AcDbEntity
  8
0
  6
Continuous
 62
               7
100
AcDbLine
 10
410.40061571050398
 20
340.63293140081242
 30
0.0
 11
395.86319724237728
 21
349.36789366063391
 31
0.0
  0
LINE
  5
E8
100
AcDbEntity
  8
0
  6
Continuous
 62
               7
100
AcDbLine
 10
417.25622385081658
 20
342.34683343589069
 30
0.0
 11
402.71880538268977
 21
351.08179569571195
 31
0.0
  0
LINE
  5
E9
100
AcDbEntity
  8
0
  6
Continuous
 62
               7
100
AcDbLine
 10
424.11183199112895
 20
344.06073547096872
 30
0.0
 11
409.57441352300225
 21
352.7956977307901
 31
0.0
  0
LINE
  5
EA
100
AcDbEntity
  8
0
  6
Continuous
 62
               7
100
AcDbLine
 10
430.96744013144144
 20
345.77463750604687
 30
0.0
 11
416.43002166331473
 21
354.50959976586824
 31
0.0
  0
LINE
  5
EB
100
AcDbEntity
  8
0
  6
Continuous
 62
               7
100
AcDbLine
 10
437.82304827175392
 20
347.48853954112502
 30
0.0
 11
423.28562980362722
 21
356.22350180094628
 31
0.0
  0
LINE
  5
EC
100
AcDbEntity
  8
0
  6
Continuous
 62
               7
100
AcDbLine
 10
444.67865641206652
 20
349.20244157620317
 30
0.0
 11
430.1412379439397
 21
357.93740383602443
 31
0.0
  0
LINE
  5
ED
100
AcDbEntity
  8
0
  6
Continuous
 62
               7
100
AcDbLine
 10
451.534264552379
 20
350.91634361128132
 30
0.0
 11
436.99684608425218
 21
359.65130587110258
 31
0.0
  0
LINE
  5
EE
100
AcDbEntity
  8
0
  6
Continuous
 62
               7
100
AcDbLine
 10
458.38987269269148
 20
352.63024564635936
 30
0.0
 11
443.85245422456478
 21
361.36520790618061
 31
0.0
  0
LINE
  5
EF
100
AcDbEntity
  8
0
  6
Continuous
 62
               7
100
AcDbLine
 10
465.24548083300397
 20
354.34414768143751
 30
0.0
 11
450.70806236487726
 21
363.07910994125876
 31
0.0
  0
LINE
  5
F0
100
AcDbEntity
  8
0
  6
Continuous
 62
               7
100
AcDbLine
 10
467.37275909258187
 20
358.89911693562027
 30
0.0
 11
457.56367050518975
 21
364.79301197633691
 31
0.0
  0
LINE
  5
F1
100
AcDbEntity
  8
0
  6
Continuous
 62
               7
100
AcDbLine
 10
465.6566873660945
 20
365.76340384156987
 30
0.0
 11
464.41927864550223
 21
366.50691401141506
 31
0.0
  0
LINE
  5
F2
100
AcDbEntity
  8
0
  6
Continuous
 62
               7
100
AcDbLine
 10
665.83108370867262
 20
330.47333157416682
 30
0.0
 11
651.29366524054581
 21
321.73836931434556
 31
0.0
  0
LINE
  5
F3
100
AcDbEntity
  8
0
  6
Continuous
 62
               7
100
AcDbLine
 10
658.97547556836025
 20
332.18723360924497
 30
0.0
 11
644.43805710023332
 21
323.45227134942371
 31
0.0
  0
LINE
  5
F4
100
AcDbEntity
  8
0
  6
Continuous
 62
               7
100
AcDbLine
 10
652.11986742804766
 20
333.90113564432312
 30
0.0
 11
637.58244895992084
 21
325.16617338450175
 31
0.0
  0
LINE
  5
F5
100
AcDbEntity
  8
0
  6
Continuous
 62
               7
100
AcDbLine
 10
645.26425928773494
 20
335.61503767940115
 30
0.0
 11
630.72684081960813
 21
326.8800754195799
 31
0.0
  0
LINE
  5
F6
100
AcDbEntity
  8
0
  6
Continuous
 62
               7
100
AcDbLine
 10
638.40865114742246
 20
337.3289397144793
 30
0.0
 11
623.87123267929564
 21
328.59397745465805
 31
0.0
  0
LINE
  5
F7
100
AcDbEntity
  8
0
  6
Continuous
 62
               7
100
AcDbLine
 10
631.55304300710998
 20
339.04284174955745
 30
0.0
 11
617.01562453898316
 21
330.30787948973608
 31
0.0
  0
LINE
  5
F8
100
AcDbEntity
  8
0
  6
Continuous
 62
               7
100
AcDbLine
 10
624.69743486679749
 20
340.7567437846356
 30
0.0
 11
610.16001639867068
 21
332.02178152481412
 31
0.0
  0
LINE
  5
F9
100
AcDbEntity
  8
0
  6
Continuous
 62
               7
100
AcDbLine
 10
617.84182672648501
 20
342.47064581971364
 30
0.0
 11
603.30440825835831
 21
333.73568355989238
 31
0.0
  0
LINE
  5
FA
100
AcDbEntity
  8
0
  6
Continuous
 62
               7
100
AcDbLine
 10
610.98621858617253
 20
344.18454785479179
 30
0.0
 11
596.44880011804571
 21
335.44958559497042
 31
0.0
  0
LINE
  5
FB
100
AcDbEntity
  8
0
  6
Continuous
 62
               7
100
AcDbLine
 10
604.13061044586004
 20
345.89844988986982
 30
0.0
 11
589.59319197773334
 21
337.16348763004856
 31
0.0
  0
LINE
  5
FC
100
AcDbEntity
  8
0
  6
Continuous
 62
               7
100
AcDbLine
 10
597.27500230554756
 20
347.61235192494809
 30
0.0
 11
582.73758383742086
 21
338.87738966512671
 31
0.0
  0
LINE
  5
FD
100
AcDbEntity
  8
0
  6
Continuous
 62
               7
100
AcDbLine
 10
590.41939416523508
 20
349.32625396002612
 30
0.0
 11
575.88197569710837
 21
340.59129170020486
 31
0.0
  0
LINE
  5
FE
100
AcDbEntity
  8
0
  6
Continuous
 62
               7
100
AcDbLine
 10
583.56378602492259
 20
351.04015599510427
 30
0.0
 11
569.02636755679589
 21
342.30519373528301
 31
0.0
  0
LINE
  5
FF
100
AcDbEntity
  8
0
  6
Continuous
 62
               7
100
AcDbLine
 10
576.70817788461011
 20
352.75405803018242
 30
0.0
 11
562.17075941648341
 21
344.01909577036105
 31
0.0
  0
LINE
  5
100
100
AcDbEntity
  8
0
  6
Continuous
 62
               7
100
AcDbLine
 10
569.85256974429763
 20
354.46796006526046
 30
0.0
 11
555.31515127617092
 21
345.7329978054392
 31
0.0
  0
LINE
  5
101
100
AcDbEntity
  8
0
  6
Continuous
 62
               7
100
AcDbLine
 10
562.99696160398514
 20
356.18186210033872
 30
0.0
 11
548.45954313585844
 21
347.44689984051735
 31
0.0
  0
LINE
  5
102
100
AcDbEntity
  8
0
  6
Continuous
 62
               7
100
AcDbLine
 10
556.14135346367266
 20
357.89576413541675
 30
0.0
 11
541.60393499554596
 21
349.1608018755955
 31
0.0
  0
LINE
  5
103
100
AcDbEntity
  8
0
  6
Continuous
 62
               7
100
AcDbLine
 10
549.28574532336017
 20
359.6096661704949
 30
0.0
 11
534.74832685523347
 21
350.87470391067353
 31
0.0
  0
LINE
  5
104
100
AcDbEntity
  8
0
  6
Continuous
 62
               7
100
AcDbLine
 10
542.43013718304769
 20
361.32356820557294
 30
0.0
 11
527.89271871492099
 21
352.58860594575168
 31
0.0
  0
LINE
  5
105
100
AcDbEntity
  8
0
  6
Continuous
 62
               7
100
AcDbLine
 10
535.57452904273521
 20
363.0374702406512
 30
0.0
 11
521.0371105746085
 21
354.30250798082972
 31
0.0
  0
LINE
  5
106
100
AcDbEntity
  8
0
  6
Continuous
 62
               7
100
AcDbLine
 10
528.71892090242272
 20
364.75137227572912
 30
0.0
 11
514.18150243429602
 21
356.01641001590798
 31
0.0
  0
LINE
  5
107
100
AcDbEntity
  8
0
  6
Continuous
 62
               7
100
AcDbLine
 10
521.86331276211024
 20
366.46527431080739
 30
0.0
 11
507.32589429398354
 21
357.73031205098602
 31
0.0
  0
LINE
  5
108
100
AcDbEntity
  8
0
  6
Continuous
 62
               7
100
AcDbLine
 10
515.00770462179776
 20
368.17917634588542
 30
0.0
 11
500.47028615367105
 21
359.44421408606416
 31
0.0
  0
LINE
  5
109
100
AcDbEntity
  8
0
  6
Continuous
 62
               7
100
AcDbLine
 10
508.15209648148527
 20
369.89307838096357
 30
0.0
 11
493.61467801335857
 21
361.15811612114231
 31
0.0
  0
LINE
  5
10A
100
AcDbEntity
  8
0
  6
Continuous
 62
               7
100
AcDbLine
 10
501.29648834117279
 20
371.60698041604172
 30
0.0
 11
486.7590698730462
 21
362.87201815622046
 31
0.0
  0
LINE
  5
10B
100
AcDbEntity
  8
0
  6
Continuous
 62
               7
100
AcDbLine
 10
494.44088020086031
 20
373.32088245111976
 30
0.0
 11
479.90346173273372
 21
364.58592019129861
 31
0.0
  0
LINE
  5
10C
100
AcDbEntity
  8
0
  6
Continuous
 62
               7
100
AcDbLine
 10
487.58527206054782
 20
375.03478448619802
 30
0.0
 11
473.04785359242123
 21
366.29982222637665
 31
0.0
  0
LINE
  5
10D
100
AcDbEntity
  8
0
  6
Continuous
 62
               7
100
AcDbLine
 10
480.72966392023534
 20
376.74868652127606
 30
0.0
 11
468.85184002828407
 21
369.61176990485791
 31
0.0
  0
LINE
  5
10E
100
AcDbEntity
  8
0
  6
Continuous
 62
               7
100
AcDbLine
 10
473.87405577992286
 20
378.46258855635421
 30
0.0
 11
470.56791175477144
 21
376.47605681080739
 31
0.0
  0
LINE
  5
10F
100
AcDbEntity
  8
0
  6
Continuous
 62
               7
100
AcDbLine
 10
468.69171550630062
 20
355.01953987105372
 30
0.0
 11
468.41234809974026
 21
355.48448531382979
 31
0.0
  0
LINE
  5
110
100
AcDbEntity
  8
0
  6
Continuous
 62
               7
100
AcDbLine
 10
475.55600241225022
 20
353.30346814456635
 30
0.0
 11
470.12625013481841
 21
362.34009345414228
 31
0.0
  0
LINE
  5
111
100
AcDbEntity
  8
0
  6
Continuous
 62
               7
100
AcDbLine
 10
482.42028931819982
 20
351.58739641807898
 30
0.0
 11
473.67426914947384
 21
366.14321833711341
 31
0.0
  0
LINE
  5
112
100
AcDbEntity
  8
0
  6
Continuous
 62
               7
100
AcDbLine
 10
489.28457622414942
 20
349.87132469159161
 30
0.0
 11
480.53855605542344
 21
364.42714661062604
 31
0.0
  0
LINE
  5
113
100
AcDbEntity
  8
0
  6
Continuous
 62
               7
100
AcDbLine
 10
496.1488631300989
 20
348.15525296510413
 30
0.0
 11
487.40284296137293
 21
362.71107488413867
 31
0.0
  0
LINE
  5
114
100
AcDbEntity
  8
0
  6
Continuous
 62
               7
100
AcDbLine
 10
503.0131500360485
 20
346.43918123861687
 30
0.0
 11
494.26712986732252
 21
360.99500315765141
 31
0.0
  0
LINE
  5
115
100
AcDbEntity
  8
0
  6
Continuous
 62
               7
100
AcDbLine
 10
509.8774369419981
 20
344.72310951212938
 30
0.0
 11
501.13141677327212
 21
359.27893143116381
 31
0.0
  0
LINE
  5
116
100
AcDbEntity
  8
0
  6
Continuous
 62
               7
100
AcDbLine
 10
516.7417238479477
 20
343.00703778564201
 30
0.0
 11
507.99570367922161
 21
357.56285970467655
 31
0.0
  0
LINE
  5
117
100
AcDbEntity
  8
0
  6
Continuous
 62
               7
100
AcDbLine
 10
523.60601075389718
 20
341.29096605915453
 30
0.0
 11
514.8599905851712
 21
355.84678797818907
 31
0.0
  0
LINE
  5
118
100
AcDbEntity
  8
0
  6
Continuous
 62
               7
100
AcDbLine
 10
530.47029765984678
 20
339.57489433266727
 30
0.0
 11
521.7242774911208
 21
354.13071625170181
 31
0.0
  0
LINE
  5
119
100
AcDbEntity
  8
0
  6
Continuous
 62
               7
100
AcDbLine
 10
537.33458456579638
 20
337.8588226061799
 30
0.0
 11
528.5885643970704
 21
352.41464452521421
 31
0.0
  0
LINE
  5
11A
100
AcDbEntity
  8
0
  6
Continuous
 62
               7
100
AcDbLine
 10
544.19887147174586
 20
336.14275087969241
 30
0.0
 11
535.45285130301988
 21
350.69857279872696
 31
0.0
  0
LINE
  5
11B
100
AcDbEntity
  8
0
  6
Continuous
 62
               7
100
AcDbLine
 10
551.06315837769546
 20
334.42667915320504
 30
0.0
 11
542.31713820896948
 21
348.98250107223959
 31
0.0
  0
LINE
  5
11C
100
AcDbEntity
  8
0
  6
Continuous
 62
               7
100
AcDbLine
 10
557.92744528364506
 20
332.71060742671767
 30
0.0
 11
549.18142511491908
 21
347.26642934575221
 31
0.0
  0
LINE
  5
11D
100
AcDbEntity
  8
0
  6
Continuous
 62
               7
100
AcDbLine
 10
564.79173218959465
 20
330.9945357002303
 30
0.0
 11
556.04571202086868
 21
345.55035761926473
 31
0.0
  0
LINE
  5
11E
100
AcDbEntity
  8
0
  6
Continuous
 62
               7
100
AcDbLine
 10
571.65601909554414
 20
329.27846397374282
 30
0.0
 11
562.90999892681816
 21
343.83428589277736
 31
0.0
  0
LINE
  5
11F
100
AcDbEntity
  8
0
  6
Continuous
 62
               7
100
AcDbLine
 10
578.52030600149374
 20
327.56239224725556
 30
0.0
 11
569.77428583276776
 21
342.11821416628999
 31
0.0
  0
LINE
  5
120
100
AcDbEntity
  8
0
  6
Continuous
 62
               7
100
AcDbLine
 10
585.38459290744333
 20
325.84632052076807
 30
0.0
 11
576.63857273871736
 21
340.40214243980262
 31
0.0
  0
LINE
  5
121
100
AcDbEntity
  8
0
  6
Continuous
 62
               7
100
AcDbLine
 10
592.24887981339282
 20
324.13024879428082
 30
0.0
 11
583.50285964466684
 21
338.68607071331525
 31
0.0
  0
LINE
  5
122
100
AcDbEntity
  8
0
  6
Continuous
 62
               7
100
AcDbLine
 10
599.11316671934242
 20
322.41417706779322
 30
0.0
 11
590.36714655061644
 21
336.96999898682776
 31
0.0
  0
LINE
  5
123
100
AcDbEntity
  8
0
  6
Continuous
 62
               7
100
AcDbLine
 10
605.97745362529201
 20
320.69810534130596
 30
0.0
 11
597.23143345656604
 21
335.2539272603405
 31
0.0
  0
LINE
  5
124
100
AcDbEntity
  8
0
  6
Continuous
 62
               7
100
AcDbLine
 10
612.84174053124161
 20
318.98203361481859
 30
0.0
 11
604.09572036251564
 21
333.53785553385302
 31
0.0
  0
LINE
  5
125
100
AcDbEntity
  8
0
  6
Continuous
 62
               7
100
AcDbLine
 10
619.7060274371911
 20
317.26596188833122
 30
0.0
 11
610.96000726846512
 21
331.82178380736565
 31
0.0
  0
LINE
  5
126
100
AcDbEntity
  8
0
  6
Continuous
 62
               7
100
AcDbLine
 10
626.57031434314069
 20
315.54989016184373
 30
0.0
 11
617.82429417441472
 21
330.10571208087828
 31
0.0
  0
LINE
  5
127
100
AcDbEntity
  8
0
  6
Continuous
 62
               7
100
AcDbLine
 10
633.43460124909029
 20
313.83381843535636
 30
0.0
 11
624.68858108036432
 21
328.38964035439091
 31
0.0
  0
LINE
  5
128
100
AcDbEntity
  8
0
  6
Continuous
 62
               7
100
AcDbLine
 10
640.29888815503989
 20
312.11774670886899
 30
0.0
 11
631.55286798631391
 21
326.67356862790342
 31
0.0
  0
LINE
  5
129
100
AcDbEntity
  8
0
  6
Continuous
 62
               7
100
AcDbLine
 10
647.1631750609896
 20
310.40167498238162
 30
0.0
 11
638.41715489226362
 21
324.95749690141605
 31
0.0
  0
LINE
  5
12A
100
AcDbEntity
  8
0
  6
Continuous
 62
               7
100
AcDbLine
 10
654.0274619669392
 20
308.68560325589425
 30
0.0
 11
645.28144179821322
 21
323.24142517492868
 31
0.0
  0
LINE
  5
12B
100
AcDbEntity
  8
0
  6
Continuous
 62
               7
100
AcDbLine
 10
660.8917488728888
 20
306.96953152940688
 30
0.0
 11
652.14572870416282
 21
321.52535344844131
 31
0.0
  0
LINE
  5
12C
100
AcDbEntity
  8
0
  6
Continuous
 62
               4
100
AcDbLine
 10
462.49851792350182
 20
412.41168192714753
 30
0.0
 11
466.86416755771847
 21
394.94909921238838
 31
0.0
  0
LINE
  5
12D
100
AcDbEntity
  8
0
  6
Continuous
 62
               4
100
AcDbLine
 10
365.48427286386038
 20
388.15809868711079
 30
0.0
 11
370.1028966567751
 21
369.68362025439563
 31
0.0
  0
LINE
  5
12E
100
AcDbEntity
  8
0
  6
Continuous
 62
               4
100
AcDbLine
 10
463.22612541908484
 20
409.50125458183021
 30
0.0
 11
366.21188035944351
 21
385.24767134179336
 31
0.0
  0
LINE
  5
12F
100
AcDbEntity
  8
0
  6
Continuous
 62
               4
100
AcDbLine
 10
469.7746062676506
 20
394.94906267489472
 30
0.0
 11
474.14024735939927
 21
412.41170376381166
 31
0.0
  0
LINE
  5
130
100
AcDbEntity
  8
0
  6
Continuous
 62
               4
100
AcDbLine
 10
566.53586725397872
 20
369.68362078036336
 30
0.0
 11
571.15449737393249
 21
388.15814126017818
 31
0.0
  0
LINE
  5
131
100
AcDbEntity
  8
0
  6
Continuous
 62
               4
100
AcDbLine
 10
473.41264048429025
 20
409.5012762633757
 30
0.0
 11
570.42689049882347
 21
385.24771375974211
 31
0.0
  0
LINE
  5
132
100
AcDbEntity
  8
0
  6
Continuous
 62
               4
100
AcDbLine
 10
532.34173823087281
 20
373.12265560125644
 30
0.0
 11
563.09234400148262
 21
426.38426715947361
 31
0.0
  0
LINE
  5
133
100
AcDbEntity
  8
0
  6
Continuous
 62
               4
100
AcDbLine
 10
541.39218593821181
 20
368.79849086161283
 30
0.0
 11
563.09234400148262
 21
406.38426715947361
 31
0.0
  0
LINE
  5
134
100
AcDbEntity
  8
0
  6
Continuous
 62
               4
100
AcDbLine
 10
563.09234400148262
 20
406.38426715947361
 30
0.0
 11
691.39646866630369
 21
406.38426715947361
 31
0.0
  0
LINE
  5
135
100
AcDbEntity
  8
0
  6
Continuous
 62
               4
100
AcDbLine
 10
563.09234400148262
 20
426.38426715947361
 30
0.0
 11
632.14120351992779
 21
426.38426715947361
 31
0.0
  0
LINE
  5
136
100
AcDbEntity
  8
0
  6
Continuous
 62
               4
100
AcDbLine
 10
532.34173823087281
 20
373.12265560125644
 30
0.0
 11
535.41991952080389
 21
381.57988918832967
 31
0.0
  0
LINE
  5
137
100
AcDbEntity
  8
0
  6
Continuous
 62
               4
100
AcDbLine
 10
532.34173823087281
 20
373.12265560125644
 30
0.0
 11
538.12682671805169
 21
380.0170555893273
 31
0.0
  0
LINE
  5
138
100
AcDbEntity
  8
0
  6
Continuous
 62
               4
100
AcDbLine
 10
541.39218593821181
 20
368.79849086161283
 30
0.0
 11
544.47036722814289
 21
377.25572444868607
 31
0.0
  0
LINE
  5
139
100
AcDbEntity
  8
0
  6
Continuous
 62
               4
100
AcDbLine
 10
541.39218593821181
 20
368.79849086161283
 30
0.0
 11
547.17727442539069
 21
375.69289084968369
 31
0.0
  0
LINE
  5
13A
100
AcDbEntity
  8
0
  6
Continuous
 62
               4
100
AcDbLine
 10
183.05393358165628
 20
429.07061894633199
 30
0.0
 11
323.05393358165628
 21
429.07061894633199
 31
0.0
  0
LINE
  5
13B
100
AcDbEntity
  8
0
  6
Continuous
 62
               4
100
AcDbLine
 10
183.05393358165628
 20
413.07061894633199
 30
0.0
 11
332.29153788869024
 21
413.07061894633199
 31
0.0
  0
LINE
  5
13C
100
AcDbEntity
  8
0
  6
Continuous
 62
               4
100
AcDbLine
 10
183.05393358165628
 20
397.07061894633188
 30
0.0
 11
341.52914219572426
 21
397.07061894633188
 31
0.0
  0
LINE
  5
13D
100
AcDbEntity
  8
0
  6
Continuous
 62
               4
100
AcDbLine
 10
323.05393358165628
 20
429.07061894633199
 30
0.0
 11
375.57009474251856
 21
338.10995959724272
 31
0.0
  0
LINE
  5
13E
100
AcDbEntity
  8
0
  6
Continuous
 62
               6
100
AcDbLine
 10
390.31992553720011
 20
335.09737065428436
 30
0.0
 11
468.31938254888473
 21
354.59723490720552
 31
0.0
  0
LINE
  5
13F
100
AcDbEntity
  8
0
  6
Continuous
 62
               6
100
AcDbLine
 10
390.7079825372582
 20
333.54514265405186
 30
0.0
 11
468.31938254888473
 21
352.94799265695855
 31
0.0
  0
LINE
  5
140
100
AcDbEntity
  8
0
  6
Continuous
 62
               6
100
AcDbLine
 10
546.31883956056947
 20
335.09737065428436
 30
0.0
 11
468.31938254888473
 21
354.59723490720552
 31
0.0
  0
LINE
  5
141
100
AcDbEntity
  8
0
  6
Continuous
 62
               6
100
AcDbLine
 10
545.93078256051137
 20
333.54514265405186
 30
0.0
 11
468.31938254888473
 21
352.94799265695855
 31
0.0
  0
LINE
  5
142
100
AcDbEntity
  8
0
  6
Continuous
 62
               6
100
AcDbLine
 10
545.93078256051137
 20
333.54514265405186
 30
0.0
 11
546.31883956056947
 21
335.09737065428436
 31
0.0
  0
LINE
  5
143
100
AcDbEntity
  8
0
  6
Continuous
 62
               6
100
AcDbLine
 10
390.7079825372582
 20
333.54514265405186
 30
0.0
 11
390.31992553720011
 21
335.09737065428436
 31
0.0
  0
LINE
  5
144
100
AcDbEntity
  8
0
  6
Continuous
 62
               7
100
AcDbLine
 10
686.42394442652221
 20
325.32511639470471
 30
0.0
 11
671.88652595839483
 21
316.59015413488322
 31
0.0
  0
LINE
  5
145
100
AcDbEntity
  8
0
  6
Continuous
 62
               7
100
AcDbLine
 10
679.56833628620927
 20
327.03901842978263
 30
0.0
 11
665.03091781808234
 21
318.30405616996148
 31
0.0
  0
LINE
  5
146
100
AcDbEntity
  8
0
  6
Continuous
 62
               7
100
AcDbLine
 10
672.71272814589668
 20
328.75292046486089
 30
0.0
 11
658.17530967776975
 21
320.01795820503952
 31
0.0
  0
LINE
  5
147
100
AcDbEntity
  8
0
  6
Continuous
 62
               7
100
AcDbLine
 10
667.75603577883862
 20
305.25345980291939
 30
0.0
 11
659.01001561011265
 21
319.80928172195382
 31
0.0
  0
LINE
  5
148
100
AcDbEntity
  8
0
  6
Continuous
 62
               7
100
AcDbLine
 10
674.62032268478822
 20
303.53738807643191
 30
0.0
 11
665.87430251606224
 21
318.09320999546645
 31
0.0
  0
LINE
  5
149
100
AcDbEntity
  8
0
  6
Continuous
 62
               7
100
AcDbLine
 10
681.48460959073782
 20
301.82131634994465
 30
0.0
 11
672.73858942201184
 21
316.37713826897908
 31
0.0
  0
LINE
  5
14A
100
AcDbEntity
  8
0
  6
Continuous
 62
               7
100
AcDbLine
 10
689.67505718882535
 20
315.59009478973002
 30
0.0
 11
686.15036038990002
 21
313.47224328924318
 31
0.0
  0
LINE
  5
14B
100
AcDbEntity
  8
0
  6
Continuous
 62
               7
100
AcDbLine
 10
689.67505718882535
 20
321.42326177580657
 30
0.0
 11
678.76817039561888
 21
314.86974302557741
 31
0.0
  0
LINE
  5
14C
100
AcDbEntity
  8
0
  6
Continuous
 62
               7
100
AcDbLine
 10
688.34889649668821
 20
300.10524462345717
 30
0.0
 11
679.60287632796167
 21
314.66106654249171
 31
0.0
  0
LINE
  5
14D
100
AcDbEntity
  8
0
  6
Continuous
 62
               7
100
AcDbLine
 10
689.67505718882535
 20
307.6061627252854
 30
0.0
 11
686.46716323391172
 21
312.94499481600423
 31
0.0
  0
LINE
  5
14E
100
AcDbEntity
  8
0
  6
Continuous
 62
               4
100
AcDbLine
 10
521.32717921643223
 20
277.8354887770376
 30
0.0
 11
618.23635451119787
 21
277.8354887770376
 31
0.0
  0
LINE
  5
14F
100
AcDbEntity
  8
0
  6
Continuous
 62
               4
100
AcDbLine
 10
479.63187586283379
 20
350.05387262246705
 30
0.0
 11
521.32717921643223
 21
277.8354887770376
 31
0.0
  0
LINE
  5
150
100
AcDbEntity
  8
0
  6
Continuous
 62
               4
100
AcDbLine
 10
479.63187586283379
 20
350.05387262246705
 30
0.0
 11
485.41696435001268
 21
343.15947263439631
 31
0.0
  0
LINE
  5
151
100
AcDbEntity
  8
0
  6
Continuous
 62
               4
100
AcDbLine
 10
479.63187586283379
 20
350.05387262246705
 30
0.0
 11
482.71005715276476
 21
341.59663903539382
 31
0.0
  0
LINE
  5
152
100
AcDbEntity
  8
0
  6
Continuous
 62
               7
100
AcDbLine
 10
406.83426385753035
 20
369.77547243557768
 30
0.0
 11
417.50585933049479
 21
327.08920942204412
 31
0.0
  0
LINE
  5
153
100
AcDbEntity
  8
0
  6
Continuous
 62
               7
100
AcDbLine
 10
403.80256854457627
 20
371.59448962335028
 30
0.0
 11
403.92383635709439
 21
371.10941837327749
 31
0.0
  0
LINE
  5
154
100
AcDbEntity
  8
0
  6
Continuous
 62
               7
100
AcDbLine
 10
411.68497635825702
 20
370.98815056075927
 30
0.0
 11
422.35654385985526
 21
328.30188055436469
 31
0.0
  0
LINE
  5
155
100
AcDbEntity
  8
0
  6
Continuous
 62
               7
100
AcDbLine
 10
413.50399354602962
 20
374.01984587371334
 30
0.0
 11
413.62526135854773
 21
373.53477462364066
 31
0.0
  0
LINE
  5
156
100
AcDbEntity
  8
0
  6
Continuous
 62
               7
100
AcDbLine
 10
403.80256854457627
 20
371.59448962335028
 30
0.0
 11
413.50399354602962
 21
374.01984587371334
 31
0.0
  0
LINE
  5
157
100
AcDbEntity
  8
0
  6
Continuous
 62
               7
100
AcDbLine
 10
406.83426385753035
 20
369.77547243557768
 30
0.0
 11
411.68497635825702
 21
370.98815056075927
 31
0.0
  0
LINE
  5
158
100
AcDbEntity
  8
0
  6
Continuous
 62
               7
100
AcDbLine
 10
403.92383635709439
 20
371.10941837327749
 30
0.0
 11
406.83426385753035
 21
369.77547243557768
 31
0.0
  0
LINE
  5
159
100
AcDbEntity
  8
0
  6
Continuous
 62
               7
100
AcDbLine
 10
411.68497635825702
 20
370.98815056075927
 30
0.0
 11
413.62526135854773
 21
373.53477462364077
 31
0.0
  0
LINE
  5
15A
100
AcDbEntity
  8
0
  6
Continuous
 62
               7
100
AcDbLine
 10
403.92383635709439
 20
371.10941837327749
 30
0.0
 11
413.62526135854773
 21
373.53477462364066
 31
0.0
  0
LINE
  5
15B
100
AcDbEntity
  8
0
  6
Continuous
 62
               7
100
AcDbLine
 10
417.50583135912848
 20
327.0892024291831
 30
0.0
 11
420.29499104704621
 21
326.24032774155586
 31
0.0
  0
LINE
  5
15C
100
AcDbEntity
  8
0
  6
Continuous
 62
               7
100
AcDbLine
 10
422.35654385985515
 20
328.30188055436469
 30
0.0
 11
420.29499104704621
 21
326.24032774155586
 31
0.0
  0
LINE
  5
15D
100
AcDbEntity
  8
0
  6
Continuous
 62
               7
100
AcDbLine
 10
408.53201323278461
 20
362.9844749345603
 30
0.0
 11
412.8976544834386
 21
366.13743806003259
 31
0.0
  0
LINE
  5
15E
100
AcDbEntity
  8
0
  6
Continuous
 62
               7
100
AcDbLine
 10
409.01708448285729
 20
361.04418993426958
 30
0.0
 11
413.38272573351128
 21
364.19715305974188
 31
0.0
  0
LINE
  5
15F
100
AcDbEntity
  8
0
  6
Continuous
 62
               7
100
AcDbLine
 10
409.50215573292996
 20
359.10390493397898
 30
0.0
 11
413.86779698358396
 21
362.25686805945128
 31
0.0
  0
LINE
  5
160
100
AcDbEntity
  8
0
  6
Continuous
 62
               7
100
AcDbLine
 10
409.98722698300253
 20
357.16361993368827
 30
0.0
 11
414.35286823365652
 21
360.31658305916068
 31
0.0
  0
LINE
  5
161
100
AcDbEntity
  8
0
  6
Continuous
 62
               7
100
AcDbLine
 10
410.47229823307521
 20
355.22333493339767
 30
0.0
 11
414.8379394837292
 21
358.37629805886996
 31
0.0
  0
LINE
  5
162
100
AcDbEntity
  8
0
  6
Continuous
 62
               7
100
AcDbLine
 10
410.95736948314777
 20
353.28304993310695
 30
0.0
 11
415.32301073380177
 21
356.43601305857925
 31
0.0
  0
LINE
  5
163
100
AcDbEntity
  8
0
  6
Continuous
 62
               7
100
AcDbLine
 10
411.44244073322045
 20
351.34276493281635
 30
0.0
 11
415.80808198387444
 21
354.49572805828853
 31
0.0
  0
LINE
  5
164
100
AcDbEntity
  8
0
  6
Continuous
 62
               7
100
AcDbLine
 10
411.92751198329302
 20
349.40247993252564
 30
0.0
 11
416.29315323394712
 21
352.55544305799782
 31
0.0
  0
LINE
  5
165
100
AcDbEntity
  8
0
  6
Continuous
 62
               7
100
AcDbLine
 10
412.41258323336569
 20
347.46219493223492
 30
0.0
 11
416.77822448401969
 21
350.61515805770722
 31
0.0
  0
LINE
  5
166
100
AcDbEntity
  8
0
  6
Continuous
 62
               7
100
AcDbLine
 10
412.89765448343837
 20
345.52190993194432
 30
0.0
 11
417.26329573409237
 21
348.67487305741662
 31
0.0
  0
LINE
  5
167
100
AcDbEntity
  8
0
  6
Continuous
 62
               7
100
AcDbLine
 10
413.38272573351105
 20
343.58162493165372
 30
0.0
 11
417.74836698416493
 21
346.73458805712602
 31
0.0
  0
LINE
  5
168
100
AcDbEntity
  8
0
  6
Continuous
 62
               7
100
AcDbLine
 10
415.8080819838741
 20
333.88019993020038
 30
0.0
 11
418.42746673426655
 21
335.77197780548391
 31
0.0
  0
LINE
  5
169
100
AcDbEntity
  8
0
  6
Continuous
 62
               7
100
AcDbLine
 10
421.75020479726436
 20
328.66568399191914
 30
0.0
 11
419.73715910946282
 21
336.71786674312551
 31
0.0
  0
LINE
  5
16A
100
AcDbEntity
  8
0
  6
Continuous
 62
               7
100
AcDbLine
 10
418.42746673426655
 20
335.77197780548391
 30
0.0
 11
419.19145395313114
 21
337.04528983692461
 31
0.0
  0
LINE
  5
16B
100
AcDbEntity
  8
0
  6
Continuous
 62
               7
100
AcDbLine
 10
419.73715910946282
 20
336.71786674312551
 30
0.0
 11
419.19145395313114
 21
337.04528983692461
 31
0.0
  0
LINE
  5
16C
100
AcDbEntity
  8
0
  6
Continuous
 62
               7
100
AcDbLine
 10
419.73715910946282
 20
336.71786674312551
 30
0.0
 11
420.1737232345281
 21
337.03316305567267
 31
0.0
  0
LINE
  5
16D
100
AcDbEntity
  8
0
  6
Continuous
 62
               7
100
AcDbLine
 10
422.35654385985515
 20
328.30188055436469
 30
0.0
 11
421.75020479726436
 21
328.66568399191914
 31
0.0
  0
LINE
  5
16E
100
AcDbEntity
  8
0
  6
Continuous
 62
               7
100
AcDbLine
 10
520.92157475005274
 20
372.10112763281217
 30
0.0
 11
510.25005277241235
 21
329.41484624547951
 31
0.0
  0
LINE
  5
16F
100
AcDbEntity
  8
0
  6
Continuous
 62
               7
100
AcDbLine
 10
519.10255756228037
 20
375.13282294576635
 30
0.0
 11
518.98128974976214
 21
374.64775169569367
 31
0.0
  0
LINE
  5
170
100
AcDbEntity
  8
0
  6
Continuous
 62
               7
100
AcDbLine
 10
525.77228725077941
 20
370.88844950763036
 30
0.0
 11
515.10071974918003
 21
328.202179501236
 31
0.0
  0
LINE
  5
171
100
AcDbEntity
  8
0
  6
Continuous
 62
               7
100
AcDbLine
 10
528.8039825637336
 20
372.70746669540273
 30
0.0
 11
528.68271475121537
 21
372.22239544533005
 31
0.0
  0
LINE
  5
172
100
AcDbEntity
  8
0
  6
Continuous
 62
               7
100
AcDbLine
 10
519.10255756228037
 20
375.13282294576635
 30
0.0
 11
528.8039825637336
 21
372.70746669540273
 31
0.0
  0
LINE
  5
173
100
AcDbEntity
  8
0
  6
Continuous
 62
               7
100
AcDbLine
 10
520.92157475005274
 20
372.10112763281217
 30
0.0
 11
525.77228725077941
 21
370.88844950763036
 31
0.0
  0
LINE
  5
174
100
AcDbEntity
  8
0
  6
Continuous
 62
               7
100
AcDbLine
 10
518.98128974976214
 20
374.64775169569367
 30
0.0
 11
520.92157475005274
 21
372.10112763281217
 31
0.0
  0
LINE
  5
175
100
AcDbEntity
  8
0
  6
Continuous
 62
               7
100
AcDbLine
 10
525.77228725077941
 20
370.88844950763036
 30
0.0
 11
528.68271475121549
 21
372.22239544533016
 31
0.0
  0
LINE
  5
176
100
AcDbEntity
  8
0
  6
Continuous
 62
               7
100
AcDbLine
 10
518.98128974976214
 20
374.64775169569367
 30
0.0
 11
528.68271475121537
 21
372.22239544533005
 31
0.0
  0
LINE
  5
177
100
AcDbEntity
  8
0
  6
Continuous
 62
               7
100
AcDbLine
 10
510.25000724845324
 20
329.4148576264177
 30
0.0
 11
512.31156006126207
 21
327.35330481360887
 31
0.0
  0
LINE
  5
178
100
AcDbEntity
  8
0
  6
Continuous
 62
               7
100
AcDbLine
 10
515.10071974917992
 20
328.202179501236
 30
0.0
 11
512.31156006126207
 21
327.35330481360887
 31
0.0
  0
LINE
  5
179
100
AcDbEntity
  8
0
  6
Continuous
 62
               7
100
AcDbLine
 10
519.22382537479825
 20
365.31013013179489
 30
0.0
 11
524.55960912559772
 21
366.0377370069038
 31
0.0
  0
LINE
  5
17A
100
AcDbEntity
  8
0
  6
Continuous
 62
               7
100
AcDbLine
 10
518.73875412472557
 20
363.36984513150418
 30
0.0
 11
524.07453787552492
 21
364.09745200661308
 31
0.0
  0
LINE
  5
17B
100
AcDbEntity
  8
0
  6
Continuous
 62
               7
100
AcDbLine
 10
518.2536828746529
 20
361.42956013121346
 30
0.0
 11
523.58946662545225
 21
362.15716700632248
 31
0.0
  0
LINE
  5
17C
100
AcDbEntity
  8
0
  6
Continuous
 62
               7
100
AcDbLine
 10
517.76861162458022
 20
359.48927513092286
 30
0.0
 11
523.10439537537957
 21
360.21688200603188
 31
0.0
  0
LINE
  5
17D
100
AcDbEntity
  8
0
  6
Continuous
 62
               7
100
AcDbLine
 10
517.28354037450754
 20
357.54899013063226
 30
0.0
 11
522.61932412530689
 21
358.27659700574117
 31
0.0
  0
LINE
  5
17E
100
AcDbEntity
  8
0
  6
Continuous
 62
               7
100
AcDbLine
 10
516.79846912443486
 20
355.60870513034166
 30
0.0
 11
522.1342528752341
 21
356.33631200545057
 31
0.0
  0
LINE
  5
17F
100
AcDbEntity
  8
0
  6
Continuous
 62
               7
100
AcDbLine
 10
516.31339787436207
 20
353.66842013005095
 30
0.0
 11
521.64918162516142
 21
354.39602700515985
 31
0.0
  0
LINE
  5
180
100
AcDbEntity
  8
0
  6
Continuous
 62
               7
100
AcDbLine
 10
515.82832662428939
 20
351.72813512976035
 30
0.0
 11
521.16411037508874
 21
352.45574200486925
 31
0.0
  0
LINE
  5
181
100
AcDbEntity
  8
0
  6
Continuous
 62
               7
100
AcDbLine
 10
515.34325537421671
 20
349.78785012946952
 30
0.0
 11
520.67903912501606
 21
350.51545700457865
 31
0.0
  0
LINE
  5
182
100
AcDbEntity
  8
0
  6
Continuous
 62
               7
100
AcDbLine
 10
514.85818412414392
 20
347.84756512917892
 30
0.0
 11
520.19396787494327
 21
348.57517200428782
 31
0.0
  0
LINE
  5
183
100
AcDbEntity
  8
0
  6
Continuous
 62
               7
100
AcDbLine
 10
514.37311287407124
 20
345.90728012888832
 30
0.0
 11
519.70889662487059
 21
346.63488700399722
 31
0.0
  0
LINE
  5
184
100
AcDbEntity
  8
0
  6
Continuous
 62
               7
100
AcDbLine
 10
511.94775662370762
 20
336.20585512743509
 30
0.0
 11
515.14922687418732
 21
336.64241925250059
 31
0.0
  0
LINE
  5
185
100
AcDbEntity
  8
0
  6
Continuous
 62
               7
100
AcDbLine
 10
514.73691631162546
 20
328.80851856382691
 30
0.0
 11
516.74996199942711
 21
336.86070131503317
 31
0.0
  0
LINE
  5
186
100
AcDbEntity
  8
0
  6
Continuous
 62
               7
100
AcDbLine
 10
515.14922687418732
 20
336.64241925250059
 30
0.0
 11
516.42253890562813
 21
337.40640647136485
 31
0.0
  0
LINE
  5
187
100
AcDbEntity
  8
0
  6
Continuous
 62
               7
100
AcDbLine
 10
516.74996199942711
 20
336.86070131503305
 30
0.0
 11
516.42253890562813
 21
337.40640647136485
 31
0.0
  0
LINE
  5
188
100
AcDbEntity
  8
0
  6
Continuous
 62
               7
100
AcDbLine
 10
516.74996199942711
 20
336.86070131503317
 30
0.0
 11
517.28354037450697
 21
336.9334620025441
 31
0.0
  0
LINE
  5
189
100
AcDbEntity
  8
0
  6
Continuous
 62
               7
100
AcDbLine
 10
515.10071974917992
 20
328.20217950123612
 30
0.0
 11
514.73691631162546
 21
328.80851856382691
 31
0.0
  0
LINE
  5
18A
100
AcDbEntity
  8
0
  6
Continuous
 62
               7
100
AcDbLine
 10
413.86779698358362
 20
341.64133993136301
 30
0.0
 11
418.23343823423761
 21
344.79430305683542
 31
0.0
  0
LINE
  5
18B
100
AcDbEntity
  8
0
  6
Continuous
 62
               7
100
AcDbLine
 10
414.3528682336563
 20
339.70105493107241
 30
0.0
 11
418.71850948431018
 21
342.8540180565447
 31
0.0
  0
LINE
  5
18C
100
AcDbEntity
  8
0
  6
Continuous
 62
               7
100
AcDbLine
 10
414.83793948372886
 20
337.76076993078181
 30
0.0
 11
419.20358073438285
 21
340.9137330562541
 31
0.0
  0
LINE
  5
18D
100
AcDbEntity
  8
0
  6
Continuous
 62
               7
100
AcDbLine
 10
415.32301073380154
 20
335.82048493049109
 30
0.0
 11
419.68865198445542
 21
338.97344805596339
 31
0.0
  0
LINE
  5
18E
100
AcDbEntity
  8
0
  6
Continuous
 62
               7
100
AcDbLine
 10
513.88804162399856
 20
343.96699512859772
 30
0.0
 11
519.22382537479791
 21
344.69460200370662
 31
0.0
  0
LINE
  5
18F
100
AcDbEntity
  8
0
  6
Continuous
 62
               7
100
AcDbLine
 10
513.40297037392588
 20
342.02671012830712
 30
0.0
 11
518.73875412472523
 21
342.75431700341602
 31
0.0
  0
LINE
  5
190
100
AcDbEntity
  8
0
  6
Continuous
 62
               7
100
AcDbLine
 10
512.9178991238532
 20
340.0864251280164
 30
0.0
 11
518.25368287465255
 21
340.81403200312542
 31
0.0
  0
LINE
  5
191
100
AcDbEntity
  8
0
  6
Continuous
 62
               7
100
AcDbLine
 10
512.43282787378052
 20
338.14614012772569
 30
0.0
 11
517.76861162457988
 21
338.8737470028347
 31
0.0
  0
LINE
  5
192
100
AcDbEntity
  8
0
  6
Continuous
 62
               4
100
AcDbLine
 10
714.78679656440374
 20
21.213203435596483
 30
0.0
 11
714.78679656440374
 21
41.213203435596483
 31
0.0
  0
LINE
  5
193
100
AcDbEntity
  8
0
  6
Continuous
 62
               4
100
AcDbLine
 10
864.78679656440374
 20
21.213203435596483
 30
0.0
 11
714.78679656440374
 21
21.213203435596483
 31
0.0
  0
LINE
  5
194
100
AcDbEntity
  8
0
  6
Continuous
 62
               4
100
AcDbLine
 10
864.78679656440374
 20
41.213203435596483
 30
0.0
 11
864.78679656440374
 21
21.213203435596483
 31
0.0
  0
LINE
  5
195
100
AcDbEntity
  8
0
  6
Continuous
 62
               4
100
AcDbLine
 10
864.78679656440374
 20
41.213203435596483
 30
0.0
 11
714.78679656440374
 21
41.213203435596483
 31
0.0
  0
LINE
  5
196
100
AcDbEntity
  8
0
  6
Continuous
 62
               4
100
AcDbLine
 10
14.142135623730949
 20
595.85786437626905
 30
0.0
 11
14.142135623730949
 21
615.85786437626905
 31
0.0
  0
LINE
  5
197
100
AcDbEntity
  8
0
  6
Continuous
 62
               4
100
AcDbLine
 10
164.14213562373095
 20
595.85786437626905
 30
0.0
 11
14.142135623730949
 21
595.85786437626905
 31
0.0
  0
LINE
  5
198
100
AcDbEntity
  8
0
  6
Continuous
 62
               4
100
AcDbLine
 10
164.14213562373095
 20
615.85786437626905
 30
0.0
 11
164.14213562373095
 21
595.85786437626905
 31
0.0
  0
LINE
  5
199
100
AcDbEntity
  8
0
  6
Continuous
 62
               4
100
AcDbLine
 10
164.14213562373095
 20
615.85786437626905
 30
0.0
 11
14.142135623730949
 21
615.85786437626905
 31
0.0
  0
CIRCLE
  5
19A
100
AcDbEntity
  8
0
  6
Continuous
 62
               4
100
AcDbCircle
 10
249.60399032590078
 20
325.17240388086401
 30
0.0
 40
1.5
  0
CIRCLE
  5
19B
100
AcDbEntity
  8
0
  6
Continuous
 62
               4
100
AcDbCircle
 10
252.51442543376317
 20
313.53067399749392
 30
0.0
 40
1.5
  0
CIRCLE
  5
19C
100
AcDbEntity
  8
0
  6
Continuous
 62
               4
100
AcDbCircle
 10
252.51442543376317
 20
313.53067399749392
 30
0.0
 40
1.5
  0
CIRCLE
  5
19D
100
AcDbEntity
  8
0
  6
Continuous
 62
               4
100
AcDbCircle
 10
255.42484764606979
 20
301.88899569629979
 30
0.0
 40
1.5
  0
CIRCLE
  5
19E
100
AcDbEntity
  8
0
  6
Continuous
 62
               4
100
AcDbCircle
 10
263.91359133315478
 20
333.90368546670771
 30
0.0
 40
1.5
  0
CIRCLE
  5
19F
100
AcDbEntity
  8
0
  6
Continuous
 62
               4
100
AcDbCircle
 10
270.94712682109588
 20
305.76956900607644
 30
0.0
 40
1.5
  0
CIRCLE
  5
1A0
100
AcDbEntity
  8
0
  6
Continuous
 62
               4
100
AcDbCircle
 10
249.60399300749737
 20
325.17240455126381
 30
0.0
 40
1.5
  0
CIRCLE
  5
1A1
100
AcDbEntity
  8
0
  6
Continuous
 62
               4
100
AcDbCircle
 10
248.39131157856627
 20
330.02312587195462
 30
0.0
 40
1.5
  0
CIRCLE
  5
1A2
100
AcDbEntity
  8
0
  6
Continuous
 62
               4
100
AcDbCircle
 10
463.22612541908484
 20
409.50125458183021
 30
0.0
 40
1.5
  0
CIRCLE
  5
1A3
100
AcDbEntity
  8
0
  6
Continuous
 62
               4
100
AcDbCircle
 10
366.21187371010046
 20
385.24765350761123
 30
0.0
 40
1.5
  0
CIRCLE
  5
1A4
100
AcDbEntity
  8
0
  6
Continuous
 62
               4
100
AcDbCircle
 10
473.41263878983909
 20
409.50125379880484
 30
0.0
 40
1.5
  0
CIRCLE
  5
1A5
100
AcDbEntity
  8
0
  6
Continuous
 62
               4
100
AcDbCircle
 10
570.42689049882347
 20
385.24771375974211
 30
0.0
 40
1.5
  0
CIRCLE
  5
1A6
100
AcDbEntity
  8
0
  6
Continuous
 62
               4
100
AcDbCircle
 10
375.57009474251856
 20
338.10995959724272
 30
0.0
 40
1.5
  0
CIRCLE
  5
1A7
100
AcDbEntity
  8
0
  6
Continuous
 62
               4
100
AcDbCircle
 10
369.32943495280972
 20
348.91909942577053
 30
0.0
 40
1.5
  0
CIRCLE
  5
1A8
100
AcDbEntity
  8
0
  6
Continuous
 62
               4
100
AcDbCircle
 10
365.16898491760207
 20
356.12521026910184
 30
0.0
 40
1.5
  0
CIRCLE
  5
1A9
100
AcDbEntity
  8
0
  6
Continuous
 62
               4
100
AcDbCircle
 10
363.60881844386461
 20
358.8274978698808
 30
0.0
 40
1.5
  0
ARC
  5
1AA
100
AcDbEntity
  8
0
  6
Continuous
 62
               6
100
AcDbCircle
 10
460.84312515629074
 20
252.22747083632399
 30
0.0
 40
2.2999999523162842
100
AcDbArc
 50
284.03624346792651
 51
14.036243467926331
  0
ARC
  5
1AB
100
AcDbEntity
  8
0
  6
Continuous
 62
               6
100
AcDbCircle
 10
460.84312515629074
 20
252.22747083632399
 30
0.0
 40
4.5999999046325684
100
AcDbArc
 50
284.03624346792651
 51
14.036243467926331
  0
ARC
  5
1AC
100
AcDbEntity
  8
0
  6
Continuous
 62
               6
100
AcDbCircle
 10
421.26131096532117
 20
242.33201728858168
 30
0.0
 40
2.2999999523162842
100
AcDbArc
 50
194.03624346792645
 51
284.03624346792651
  0
ARC
  5
1AD
100
AcDbEntity
  8
0
  6
Continuous
 62
               6
100
AcDbCircle
 10
421.26131096532117
 20
242.33201728858168
 30
0.0
 40
4.5999999046325684
100
AcDbArc
 50
194.03624346792645
 51
284.03624346792651
  0
ARC
  5
1AE
100
AcDbEntity
  8
0
  6
Continuous
 62
               6
100
AcDbCircle
 10
399.23907616576207
 20
330.42095648681772
 30
0.0
 40
4.5999999046325684
100
AcDbArc
 50
104.0362434679265
 51
194.03624346792645
  0
ARC
  5
1AF
100
AcDbEntity
  8
0
  6
Continuous
 62
               6
100
AcDbCircle
 10
399.23907616576207
 20
330.42095648681772
 30
0.0
 40
2.2999999523162842
100
AcDbArc
 50
104.0362434679265
 51
194.03624346792645
  0
ARC
  5
1B0
100
AcDbEntity
  8
0
  6
Continuous
 62
               6
100
AcDbCircle
 10
438.82089035673164
 20
340.31641003456019
 30
0.0
 40
2.2999999523162842
100
AcDbArc
 50
14.036243467926356
 51
104.0362434679265
  0
ARC
  5
1B1
100
AcDbEntity
  8
0
  6
Continuous
 62
               6
100
AcDbCircle
 10
438.82089035673164
 20
340.31641003456019
 30
0.0
 40
4.5999999046325684
100
AcDbArc
 50
14.036243467926356
 51
104.0362434679265
  0
ARC
  5
1B2
100
AcDbEntity
  8
0
  6
Continuous
 62
               2
100
AcDbCircle
 10
372.57002783263761
 20
364.11574483914859
 30
0.0
 40
1.0430593840360769
100
AcDbArc
 50
104.0362434679265
 51
278.94172673916279
  0
ARC
  5
1B3
100
AcDbEntity
  8
0
  6
Continuous
 62
               6
100
AcDbCircle
 10
475.79563994147884
 20
252.22747083632404
 30
0.0
 40
2.2999999523162842
100
AcDbArc
 50
165.9637565320736
 51
255.96375653207346
  0
ARC
  5
1B4
100
AcDbEntity
  8
0
  6
Continuous
 62
               6
100
AcDbCircle
 10
475.79563994147884
 20
252.22747083632404
 30
0.0
 40
4.5999999046325684
100
AcDbArc
 50
165.9637565320736
 51
255.96375653207346
  0
ARC
  5
1B5
100
AcDbEntity
  8
0
  6
Continuous
 62
               6
100
AcDbCircle
 10
515.37745413244829
 20
242.33201728858168
 30
0.0
 40
2.2999999523162842
100
AcDbArc
 50
255.96375653207346
 51
345.96375653207355
  0
ARC
  5
1B6
100
AcDbEntity
  8
0
  6
Continuous
 62
               6
100
AcDbCircle
 10
515.37745413244829
 20
242.33201728858168
 30
0.0
 40
4.5999999046325684
100
AcDbArc
 50
255.96375653207346
 51
345.96375653207355
  0
ARC
  5
1B7
100
AcDbEntity
  8
0
  6
Continuous
 62
               6
100
AcDbCircle
 10
537.39968893200739
 20
330.42095648681772
 30
0.0
 40
4.5999999046325684
100
AcDbArc
 50
345.96375653207355
 51
75.963756532073518
  0
ARC
  5
1B8
100
AcDbEntity
  8
0
  6
Continuous
 62
               6
100
AcDbCircle
 10
537.39968893200739
 20
330.42095648681772
 30
0.0
 40
2.2999999523162842
100
AcDbArc
 50
345.96375653207355
 51
75.963756532073518
  0
ARC
  5
1B9
100
AcDbEntity
  8
0
  6
Continuous
 62
               6
100
AcDbCircle
 10
497.81787474103794
 20
340.31641003456031
 30
0.0
 40
2.2999999523162842
100
AcDbArc
 50
75.963756532073504
 51
165.9637565320736
  0
ARC
  5
1BA
100
AcDbEntity
  8
0
  6
Continuous
 62
               6
100
AcDbCircle
 10
497.81787474103794
 20
340.31641003456031
 30
0.0
 40
4.5999999046325684
100
AcDbArc
 50
75.963756532073504
 51
165.9637565320736
  0
ARC
  5
1BB
100
AcDbEntity
  8
0
  6
Continuous
 62
               2
100
AcDbCircle
 10
564.06873726513197
 20
364.11574483914859
 30
0.0
 40
1.0430593840360769
100
AcDbArc
 50
261.05827326083704
 51
75.963756532073518
  0
ARC
  5
1BC
100
AcDbEntity
  8
0
  6
Continuous
 62
               7
100
AcDbCircle
 10
389.74269751399254
 20
326.98653445983535
 30
0.0
 40
30.0
100
AcDbArc
 50
358.89902864063322
 51
17.028545480801075
  0
ARC
  5
1BD
100
AcDbEntity
  8
0
  6
Continuous
 62
               7
100
AcDbCircle
 10
485.70481010540516
 20
342.3892724041163
 30
0.0
 40
30.0
100
AcDbArc
 50
330.82654170478088
 51
348.9560585449488
  0
TEXT
  5
1BE
100
AcDbEntity
  8
0
 62
               7
100
AcDbText
 10
749.28679763728735
 20
26.713203554805766
 30
0.0
 40
8.9999997615814333
  1
棟詳細図 【S=1/3】
 41
0.7695
  7
FontTableH_0
 72
               5
 11
830.28679549152025
 21
26.713203554805766
 31
0.0
100
AcDbText
  0
TEXT
  5
1BF
100
AcDbEntity
  8
0
 62
               7
100
AcDbText
 10
251.35047447994631
 20
324.37241138299072
 30
0.0
 40
9.6000000000000103
  1
12
 50
284.03625799367495
 41
0.7695
  7
FontTableH_0
 72
               5
 11
253.67881884144001
 21
315.05904397188209
 31
0.0
100
AcDbText
  0
TEXT
  5
1C0
100
AcDbEntity
  8
0
 62
               7
100
AcDbText
 10
254.26087487057134
 20
312.73080982049072
 30
0.0
 40
9.6000000000000103
  1
12
 50
284.03625799367495
 41
0.7695
  7
FontTableH_0
 72
               5
 11
256.58921923206503
 21
303.41744240938209
 31
0.0
100
AcDbText
  0
TEXT
  5
1C1
100
AcDbEntity
  8
0
 62
               7
100
AcDbText
 10
267.72138512447759
 20
324.85776294549072
 30
0.0
 40
9.6000000000000103
  1
29
 50
284.03625799367495
 41
0.7695
  7
FontTableH_0
 72
               5
 11
270.04972948597128
 21
315.54439553438209
 31
0.0
100
AcDbText
  0
TEXT
  5
1C2
100
AcDbEntity
  8
0
 62
               7
100
AcDbText
 10
248.41566002682137
 20
336.11142505486572
 30
0.0
 40
9.6000000000000103
  1
5
 50
284.03625799367495
 41
0.7695
  7
FontTableH_0
 72
               5
 11
249.57983220756822
 21
331.4547413493114
 31
0.0
100
AcDbText
  0
TEXT
  5
1C3
100
AcDbEntity
  8
0
 62
               7
100
AcDbText
 10
407.37040245846197
 20
397.08408130486566
 30
0.0
 40
9.6000000000000103
  1
100
 50
14.036262433071506
 41
0.7695
  7
FontTableH_0
 72
               5
 11
421.34045330451744
 21
400.5765989295349
 31
0.0
100
AcDbText
  0
TEXT
  5
1C4
100
AcDbEntity
  8
0
 62
               7
100
AcDbText
 10
515.29886925533697
 20
400.57657398064697
 30
0.0
 40
9.6000000000000103
  1
100
 50
345.96378002823968
 41
0.7695
  7
FontTableH_0
 72
               5
 11
529.26892268965742
 21
397.08406670903929
 31
0.0
100
AcDbText
  0
TEXT
  5
1C5
100
AcDbEntity
  8
0
 62
               7
100
AcDbText
 10
186.05366051510259
 20
414.57217944939697
 30
0.0
 40
9.6000000000000103
  1
アスファルトルーフィング 22kg
 41
0.7695
  7
FontTableH_0
 72
               5
 11
325.25366051510275
 21
414.57217944939697
 31
0.0
100
AcDbText
  0
TEXT
  5
1C6
100
AcDbEntity
  8
0
 62
               7
100
AcDbText
 10
186.05366051510259
 20
398.57217944939691
 30
0.0
 40
9.6000000000000103
  1
硬質木片セメント板 12mm＋12mm
 41
0.7695
  7
FontTableH_0
 72
               5
 11
325.25366051510275
 21
398.57217944939691
 31
0.0
100
AcDbText
  0
TEXT
  5
1C7
100
AcDbEntity
  8
0
 62
               7
100
AcDbText
 10
563.09234400148262
 20
407.88608325799072
 30
0.0
 40
9.6000000000000103
  1
力板（ブチルテープをはさむ）
 41
0.7695
  7
FontTableH_0
 72
               5
 11
697.49234400148271
 21
407.88608325799072
 31
0.0
100
AcDbText
  0
TEXT
  5
1C8
100
AcDbEntity
  8
0
 62
               7
100
AcDbText
 10
563.09234400148262
 20
427.88556445916254
 30
0.0
 40
9.6000000000000103
  1
棟板：屋根同材
 41
0.7695
  7
FontTableH_0
 72
               5
 11
630.29234400148266
 21
427.88556445916254
 31
0.0
100
AcDbText
  0
TEXT
  5
1C9
100
AcDbEntity
  8
0
 62
               7
100
AcDbText
 10
521.32717921643234
 20
279.33664478142822
 30
0.0
 40
9.6000000000000103
  1
補強プレート（別途）
 41
0.7695
  7
FontTableH_0
 72
               5
 11
617.32717921643246
 21
279.33664478142822
 31
0.0
100
AcDbText
  0
TEXT
  5
1CA
100
AcDbEntity
  8
0
 62
               7
100
AcDbText
 10
186.05366051510259
 20
430.57220996697509
 30
0.0
 40
9.6000000000000103
  1
プロムナ－ル－フS：各種金属板
 41
0.7695
  7
FontTableH_0
 72
               5
 11
325.25366051510275
 21
430.57220996697509
 31
0.0
100
AcDbText
  0
TEXT
  5
1CB
100
AcDbEntity
  8
0
 62
               7
100
AcDbText
 10
50.892136637009877
 20
601.35786449547834
 30
0.0
 40
8.9999997615814333
  1
プロムナールーフS
 41
0.7695
  7
FontTableH_0
 72
               5
 11
127.39213461045206
 21
601.35786449547834
 31
0.0
100
AcDbText
  0
ENDSEC
  0
SECTION
  2
OBJECTS
  0
DICTIONARY
  5
19
100
AcDbDictionary
  3
ACAD_GROUP
350
1A
  3
ACAD_MLINESTYLE
350
1B
  3
DWGPROPS
350
1CC
  0
DICTIONARY
  5
1A
102
{ACAD_REACTORS
330
19
102
}
100
AcDbDictionary
  0
DICTIONARY
  5
1B
102
{ACAD_REACTORS
330
19
102
}
100
AcDbDictionary
  3
STANDARD
350
1C
  0
MLINESTYLE
  5
1C
102
{ACAD_REACTORS
330
1B
102
}
100
AcDbMlineStyle
  2
Standard
 70
               0
  3

 62
               0
 51
90.0
 52
90.0
 71
               2
 49
0.5
 62
             256
  6
ByLayer
 49
-0.5
 62
             256
  6
ByLayer
  0
XRECORD
  5
1CC
100
AcDbXrecord
  1
DWGPROPS COOKIE
  2

  3

  4

  6

  7

  0
ENDSEC
  0
EOF
