  0
SECTION
  2
HEADER
  9
$ACADVER
  1
AC1014
  9
$ACADMAINTVER
 70
               0
  9
$DWGCODEPAGE
  3
ANSI_932
  9
$INSBASE
 10
0.0
 20
0.0
 30
0.0
  9
$EXTMIN
 10
0.0
 20
0.0
 30
0.0
  9
$EXTMAX
 10
891.00000000000091
 20
630.00000000000068
 30
0.0
  9
$LIMMIN
 10
0.0
 20
0.0
  9
$LIMMAX
 10
891.00000000000091
 20
630.00000000000068
  9
$ORTHOMODE
 70
               0
  9
$REGENMODE
 70
               1
  9
$FILLMODE
 70
               1
  9
$QTEXTMODE
 70
               0
  9
$MIRRTEXT
 70
               1
  9
$DRAGMODE
 70
               2
  9
$LTSCALE
 40
3.0000000000000031
  9
$OSMODE
 70
               0
  9
$ATTMODE
 70
               1
  9
$TEXTSIZE
 40
0.2
  9
$TRACEWID
 40
0.05
  9
$TEXTSTYLE
  7
Standard
  9
$CLAYER
  8
0
  9
$CELTYPE
  6
Continuous
  9
$CECOLOR
 62
             256
  9
$CELTSCALE
 40
1.0
  9
$DELOBJ
 70
               1
  9
$DISPSILH
 70
               0
  9
$DIMSCALE
 40
1.0
  9
$DIMASZ
 40
0.18
  9
$DIMEXO
 40
0.0625
  9
$DIMDLI
 40
0.38
  9
$DIMRND
 40
0.0
  9
$DIMDLE
 40
0.0
  9
$DIMEXE
 40
0.18
  9
$DIMTP
 40
0.0
  9
$DIMTM
 40
0.0
  9
$DIMTXT
 40
0.18
  9
$DIMCEN
 40
0.09
  9
$DIMTSZ
 40
0.0
  9
$DIMTOL
 70
               0
  9
$DIMLIM
 70
               0
  9
$DIMTIH
 70
               1
  9
$DIMTOH
 70
               1
  9
$DIMSE1
 70
               0
  9
$DIMSE2
 70
               0
  9
$DIMTAD
 70
               0
  9
$DIMZIN
 70
               0
  9
$DIMBLK
  1

  9
$DIMASO
 70
               1
  9
$DIMSHO
 70
               1
  9
$DIMPOST
  1

  9
$DIMAPOST
  1

  9
$DIMALT
 70
               0
  9
$DIMALTD
 70
               2
  9
$DIMALTF
 40
25.399999999999999
  9
$DIMLFAC
 40
1.0
  9
$DIMTOFL
 70
               0
  9
$DIMTVP
 40
0.0
  9
$DIMTIX
 70
               0
  9
$DIMSOXD
 70
               0
  9
$DIMSAH
 70
               0
  9
$DIMBLK1
  1

  9
$DIMBLK2
  1

  9
$DIMSTYLE
  2
Standard
  9
$DIMCLRD
 70
               0
  9
$DIMCLRE
 70
               0
  9
$DIMCLRT
 70
               0
  9
$DIMTFAC
 40
1.0
  9
$DIMGAP
 40
0.09
  9
$DIMJUST
 70
               0
  9
$DIMSD1
 70
               0
  9
$DIMSD2
 70
               0
  9
$DIMTOLJ
 70
               1
  9
$DIMTZIN
 70
               0
  9
$DIMALTZ
 70
               0
  9
$DIMALTTZ
 70
               0
  9
$DIMFIT
 70
               3
  9
$DIMUPT
 70
               0
  9
$DIMUNIT
 70
               2
  9
$DIMDEC
 70
               4
  9
$DIMTDEC
 70
               4
  9
$DIMALTU
 70
               2
  9
$DIMALTTD
 70
               2
  9
$DIMTXSTY
  7
Standard
  9
$DIMAUNIT
 70
               0
  9
$LUNITS
 70
               2
  9
$LUPREC
 70
               4
  9
$SKETCHINC
 40
0.1
  9
$FILLETRAD
 40
0.0
  9
$AUNITS
 70
               0
  9
$AUPREC
 70
               0
  9
$MENU
  1
acad
  9
$ELEVATION
 40
0.0
  9
$PELEVATION
 40
0.0
  9
$THICKNESS
 40
0.0
  9
$LIMCHECK
 70
               0
  9
$BLIPMODE
 70
               1
  9
$CHAMFERA
 40
0.0
  9
$CHAMFERB
 40
0.0
  9
$CHAMFERC
 40
0.0
  9
$CHAMFERD
 40
0.0
  9
$SKPOLY
 70
               0
  9
$TDCREATE
 40
0.000000000
  9
$TDUPDATE
 40
0.000000000
  9
$TDINDWG
 40
0.0000000000
  9
$TDUSRTIMER
 40
0.0000000000
  9
$USRTIMER
 70
               1
  9
$ANGBASE
 50
0.0
  9
$ANGDIR
 70
               0
  9
$PDMODE
 70
               0
  9
$PDSIZE
 40
0.0
  9
$PLINEWID
 40
0.0
  9
$COORDS
 70
               0
  9
$SPLFRAME
 70
               0
  9
$SPLINETYPE
 70
               6
  9
$SPLINESEGS
 70
               8
  9
$ATTDIA
 70
               0
  9
$ATTREQ
 70
               1
  9
$HANDLING
 70
               1
  9
$HANDSEED
  5
2F8
  9
$SURFTAB1
 70
               6
  9
$SURFTAB2
 70
               6
  9
$SURFTYPE
 70
               6
  9
$SURFU
 70
               6
  9
$SURFV
 70
               6
  9
$UCSNAME
  2

  9
$UCSORG
 10
0.0
 20
0.0
 30
0.0
  9
$UCSXDIR
 10
1.0
 20
0.0
 30
0.0
  9
$UCSYDIR
 10
0.0
 20
1.0
 30
0.0
  9
$PUCSNAME
  2

  9
$PUCSORG
 10
0.0
 20
0.0
 30
0.0
  9
$PUCSXDIR
 10
1.0
 20
0.0
 30
0.0
  9
$PUCSYDIR
 10
0.0
 20
1.0
 30
0.0
  9
$USERI1
 70
               0
  9
$USERI2
 70
               0
  9
$USERI3
 70
               0
  9
$USERI4
 70
               0
  9
$USERI5
 70
               0
  9
$USERR1
 40
0.0
  9
$USERR2
 40
0.0
  9
$USERR3
 40
0.0
  9
$USERR4
 40
0.0
  9
$USERR5
 40
0.0
  9
$WORLDVIEW
 70
               1
  9
$SHADEDGE
 70
               3
  9
$SHADEDIF
 70
              70
  9
$TILEMODE
 70
               1
  9
$MAXACTVP
 70
              16
  9
$PINSBASE
 10
0.0
 20
0.0
 30
0.0
  9
$PLIMCHECK
 70
               0
  9
$PEXTMIN
 10
1.0000000000000000E+20
 20
1.0000000000000000E+20
 30
1.0000000000000000E+20
  9
$PEXTMAX
 10
-1.0000000000000000E+20
 20
-1.0000000000000000E+20
 30
-1.0000000000000000E+20
  9
$PLIMMIN
 10
0.0
 20
0.0
  9
$PLIMMAX
 10
12.0
 20
9.0
  9
$UNITMODE
 70
               0
  9
$VISRETAIN
 70
               0
  9
$PLINEGEN
 70
               1
  9
$PSLTSCALE
 70
               0
  9
$TREEDEPTH
 70
            3020
  9
$PICKSTYLE
 70
               1
  9
$CMLSTYLE
  2
Standard
  9
$CMLJUST
 70
               0
  9
$CMLSCALE
 40
1.0
  9
$PROXYGRAPHICS
 70
               0
  9
$MEASUREMENT
 70
               0
  0
ENDSEC
  0
SECTION
  2
CLASSES
  0
CLASS
  1
LWPOLYLINE
  2
AcDbPolyline
  3
"AutoCAD"
 90
        0
280
               0
281
               1
  0
CLASS
  1
IMAGE
  2
AcDbRasterImage
  3
ISM
 90
      127
280
               0
281
               1
  0
CLASS
  1
OLE2FRAME
  2
AcDbOle2Frame
  3
""
 90
        0
280
               0
281
               1
  0
CLASS
  1
HATCH
  2
AcDbHatch
  3
"ACAD_SEDONA"
 90
        0
280
               0
281
               1
  0
CLASS
  1
DICTIONARYVAR
  2
AcDbDictionaryVar
  3
"AutoCAD"
 90
        0
280
               0
281
               0
  0
CLASS
  1
RASTERVARIABLES
  2
AcDbRasterVariables
  3
ISM
 90
        0
280
               0
281
               0
  0
CLASS
  1
IMAGEDEF
  2
AcDbRasterImageDef
  3
ISM
 90
        0
280
               0
281
               0
  0
CLASS
  1
IMAGEDEF_REACTOR
  2
AcDbRasterImageDefReactor
  3
ISM
 90
        1
280
               0
281
               0
  0
CLASS
  1
IDBUFFER
  2
AcDbIdBuffer
  3
"Acad"
 90
        0
280
               0
281
               0
  0
CLASS
  1
SPATIAL_FILTER
  2
AcDbSpatialFilter
  3
"Acad"
 90
        0
280
               0
281
               0
  0
CLASS
  1
XRECORD
  2
AcDbXrecord
  3
"<Built In>"
 90
        0
280
               0
281
               0
  0
CLASS
  1
SORTENTSTABLE
  2
AcDbSortentsTable
  3
"AutoCAD"
 90
        0
280
               0
281
               0
  0
CLASS
  1
LAYER_INDEX
  2
AcDbLayerIndex
  3
"Acad"
 90
        0
280
               0
281
               0
  0
CLASS
  1
SPATIAL_INDEX
  2
AcDbSpatialIndex
  3
"Acad"
 90
        0
280
               0
281
               0
  0
CLASS
  1
OBJECT_PTR
  2
CAseDLPNTableRecord
  3
"ASE-LPNTableRecord"
 90
        1
280
               0
281
               0
  0
CLASS
  1
LAYOUT
  2
AcDbLayout
  3
"AutoCAD 2000"
 90
        0
280
               0
281
               0
  0
CLASS
  1
PLOTSETTINGS
  2
AcDbPlotSettings
  3
"AutoCAD 2000"
 90
        0
280
               0
281
               0
  0
CLASS
  1
ACDBDICTIONARYWDFLT
  2
AcDbDictionaryWithDefault
  3
"AutoCAD 2000"
 90
        0
280
               0
281
               0
  0
CLASS
  1
ACDBPLACEHOLDER
  2
AcDbPlaceHolder
  3
"AutoCAD 2000"
 90
        0
280
               0
281
               0
  0
CLASS
  1
VBA_PROJECT
  2
AcDbVbaProject
  3
"acadvba"
 90
        0
280
               0
281
               0
  0
CLASS
  1
WIPEOUT
  2
AcDbWipeout
  3
WipeOut|AutoCAD Express Tool|expresstools@autodesk.com
 90
      127
280
               0
281
               1
  0
CLASS
  1
WIPEOUTVARIABLES
  2
AcDbWipeoutVariables
  3
WipeOut|AutoCAD Express Tool|expresstools@autodesk.com
 90
        0
280
               0
281
               0
  0
CLASS
  1
RTEXT
  2
RText
  3
RText|AutoCAD Express Tool|expresstools@autodesk.com
 90
        0
280
               0
281
               1
  0
CLASS
  1
ARCALIGNEDTEXT
  2
AcDbArcAlignedText
  3
ATEXT|AutoCAD Express Tool|expresstools@autodesk.com
 90
        0
280
               0
281
               1
  0
ENDSEC
  0
SECTION
  2
TABLES
  0
TABLE
  2
VPORT
  5
7
100
AcDbSymbolTable
 70
               1
  0
VPORT
  5
15
100
AcDbSymbolTableRecord
100
AcDbViewportTableRecord
  2
*ACTIVE
 70
               0
 10
0.0
 20
0.0
 11
1.0
 21
1.0
 12
445.50000000000045
 22
315.00000000000034
 13
0.0
 23
0.0
 14
10.0
 24
10.0
 15
10.0
 25
10.0
 16
0.0
 26
0.0
 36
1.0
 17
0.0
 27
0.0
 37
0.0
 40
630.00000000000068
 41
1.4142857142857141
 42
50.0
 43
0.0
 44
0.0
 50
0.0
 51
0.0
 71
               0
 72
             100
 73
               1
 74
               1
 75
               0
 76
               0
 77
               0
 78
               0
  0
ENDTAB
  0
TABLE
  2
LTYPE
  5
4
100
AcDbSymbolTable
 70
              24
  0
LTYPE
  5
11
100
AcDbSymbolTableRecord
100
AcDbLinetypeTableRecord
  2
ByBlock
 70
              64
  3

 72
              65
 73
               0
 40
0.0
  0
LTYPE
  5
12
100
AcDbSymbolTableRecord
100
AcDbLinetypeTableRecord
  2
ByLayer
 70
              64
  3

 72
              65
 73
               0
 40
0.0
  0
LTYPE
  5
13
100
AcDbSymbolTableRecord
100
AcDbLinetypeTableRecord
  2
Continuous
 70
              64
  3
Solid line
 72
              65
 73
               0
 40
0.0
  0
LTYPE
  5
1D
100
AcDbSymbolTableRecord
100
AcDbLinetypeTableRecord
  2
DOT
 70
              64
  3
Dot . . . . . . . . . . . . . . . . . . . . . .
 72
              65
 73
               2
 40
6.3499999999999996
 49
0.35
 74
               0
 49
-6.0
 74
               0
  0
LTYPE
  5
1E
100
AcDbSymbolTableRecord
100
AcDbLinetypeTableRecord
  2
DASHED
 70
              64
  3
Dashed __ __ __ __ __ __ __ __ __ __ __ __ __ _
 72
              65
 73
               2
 40
12.699999999999999
 49
6.3499999999999996
 74
               0
 49
-6.3499999999999996
 74
               0
  0
LTYPE
  5
1F
100
AcDbSymbolTableRecord
100
AcDbLinetypeTableRecord
  2
DASHDOT
 70
              64
  3
Dash dot __ . __ . __ . __ . __ . __ . __ . __
 72
              65
 73
               4
 40
25.399999999999999
 49
12.699999999999999
 74
               0
 49
-6.0
 74
               0
 49
0.7
 74
               0
 49
-6.0
 74
               0
  0
LTYPE
  5
20
100
AcDbSymbolTableRecord
100
AcDbLinetypeTableRecord
  2
DIVIDE
 70
              64
  3
Divide ____ . . ____ . . ____ . . ____ . . ____
 72
              65
 73
               6
 40
31.75
 49
12.699999999999999
 74
               0
 49
-6.0
 74
               0
 49
0.875
 74
               0
 49
-6.0
 74
               0
 49
0.875
 74
               0
 49
-6.0
 74
               0
  0
LTYPE
  5
21
100
AcDbSymbolTableRecord
100
AcDbLinetypeTableRecord
  2
HIDDEN
 70
              64
  3
Hidden __ __ __ __ __ __ __ __ __ __ __ __ __ _
 72
              65
 73
               2
 40
9.5250000000000004
 49
6.3499999999999996
 74
               0
 49
-3.1749999999999998
 74
               0
  0
LTYPE
  5
22
100
AcDbSymbolTableRecord
100
AcDbLinetypeTableRecord
  2
CENTER
 70
              64
  3
Center ____ _ ____ _ ____ _ ____ _ ____ _ ____
 72
              65
 73
               4
 40
50.799999999999997
 49
31.75
 74
               0
 49
-6.3499999999999996
 74
               0
 49
6.3499999999999996
 74
               0
 49
-6.3499999999999996
 74
               0
  0
LTYPE
  5
23
100
AcDbSymbolTableRecord
100
AcDbLinetypeTableRecord
  2
PHANTOM
 70
              64
  3
Phantom ______  __  __  ______  __  __  ______
 72
              65
 73
               6
 40
63.5
 49
31.75
 74
               0
 49
-6.3499999999999996
 74
               0
 49
6.3499999999999996
 74
               0
 49
-6.3499999999999996
 74
               0
 49
6.3499999999999996
 74
               0
 49
-6.3499999999999996
 74
               0
  0
LTYPE
  5
24
100
AcDbSymbolTableRecord
100
AcDbLinetypeTableRecord
  2
ACAD_ISO02W100
 70
              64
  3
ISO dash __ __ __ __ __ __ __ __ __ __ __ __ __
 72
              65
 73
               2
 40
15.0
 49
12.0
 74
               0
 49
-3.0
 74
               0
  0
LTYPE
  5
25
100
AcDbSymbolTableRecord
100
AcDbLinetypeTableRecord
  2
ACAD_ISO03W100
 70
              64
  3
ISO dash space __ __ __ __ __ __ __ __ __ __ __ __ __ __
 72
              65
 73
               2
 40
30.0
 49
12.0
 74
               0
 49
-18.0
 74
               0
  0
LTYPE
  5
26
100
AcDbSymbolTableRecord
100
AcDbLinetypeTableRecord
  2
ACAD_ISO04W100
 70
              64
  3
ISO long-dash dot ____ . ____ . ____ . ____ . _
 72
              65
 73
               4
 40
30.0
 49
24.0
 74
               0
 49
-3.0
 74
               0
 49
0.0
 74
               0
 49
-3.0
 74
               0
  0
LTYPE
  5
27
100
AcDbSymbolTableRecord
100
AcDbLinetypeTableRecord
  2
ACAD_ISO05W100
 70
              64
  3
ISO long-dash double-dot ____ .. ____ .. ____ .
 72
              65
 73
               6
 40
33.0
 49
24.0
 74
               0
 49
-3.0
 74
               0
 49
0.0
 74
               0
 49
-3.0
 74
               0
 49
0.0
 74
               0
 49
-3.0
 74
               0
  0
LTYPE
  5
28
100
AcDbSymbolTableRecord
100
AcDbLinetypeTableRecord
  2
ACAD_ISO06W100
 70
              64
  3
ISO long-dash triple-dot ____ ... ____ ... ____
 72
              65
 73
               8
 40
36.0
 49
24.0
 74
               0
 49
-3.0
 74
               0
 49
0.0
 74
               0
 49
-3.0
 74
               0
 49
0.0
 74
               0
 49
-3.0
 74
               0
 49
0.0
 74
               0
 49
-3.0
 74
               0
  0
LTYPE
  5
29
100
AcDbSymbolTableRecord
100
AcDbLinetypeTableRecord
  2
ACAD_ISO07W100
 70
              64
  3
ISO dot . . . . . . . . . . . . . . . . . . . .
 72
              65
 73
               2
 40
3.0
 49
0.0
 74
               0
 49
-3.0
 74
               0
  0
LTYPE
  5
2A
100
AcDbSymbolTableRecord
100
AcDbLinetypeTableRecord
  2
ACAD_ISO08W100
 70
              64
  3
ISO long-dash short-dash ____ __ ____ __ ____ _
 72
              65
 73
               4
 40
36.0
 49
24.0
 74
               0
 49
-3.0
 74
               0
 49
6.0
 74
               0
 49
-3.0
 74
               0
  0
LTYPE
  5
2B
100
AcDbSymbolTableRecord
100
AcDbLinetypeTableRecord
  2
ACAD_ISO09W100
 70
              64
  3
ISO long-dash double-short-dash ____ __ __ ____
 72
              65
 73
               6
 40
45.0
 49
24.0
 74
               0
 49
-3.0
 74
               0
 49
6.0
 74
               0
 49
-3.0
 74
               0
 49
6.0
 74
               0
 49
-3.0
 74
               0
  0
LTYPE
  5
2C
100
AcDbSymbolTableRecord
100
AcDbLinetypeTableRecord
  2
ACAD_ISO10W100
 70
              64
  3
ISO dash dot __ . __ . __ . __ . __ . __ . __ .
 72
              65
 73
               4
 40
18.0
 49
12.0
 74
               0
 49
-3.0
 74
               0
 49
0.0
 74
               0
 49
-3.0
 74
               0
  0
LTYPE
  5
2D
100
AcDbSymbolTableRecord
100
AcDbLinetypeTableRecord
  2
ACAD_ISO11W100
 70
              64
  3
ISO double-dash dot __ __ . __ __ . __ __ . __ 
 72
              65
 73
               6
 40
33.0
 49
12.0
 74
               0
 49
-3.0
 74
               0
 49
12.0
 74
               0
 49
-3.0
 74
               0
 49
0.0
 74
               0
 49
-3.0
 74
               0
  0
LTYPE
  5
2E
100
AcDbSymbolTableRecord
100
AcDbLinetypeTableRecord
  2
ACAD_ISO12W100
 70
              64
  3
ISO dash double-dot __ . . __ . . __ . . __ . .
 72
              65
 73
               6
 40
21.0
 49
12.0
 74
               0
 49
-3.0
 74
               0
 49
0.0
 74
               0
 49
-3.0
 74
               0
 49
0.0
 74
               0
 49
-3.0
 74
               0
  0
LTYPE
  5
2F
100
AcDbSymbolTableRecord
100
AcDbLinetypeTableRecord
  2
ACAD_ISO13W100
 70
              64
  3
ISO double-dash double-dot __ __ . . __ __ . . 
 72
              65
 73
               8
 40
36.0
 49
12.0
 74
               0
 49
-3.0
 74
               0
 49
12.0
 74
               0
 49
-3.0
 74
               0
 49
0.0
 74
               0
 49
-3.0
 74
               0
 49
0.0
 74
               0
 49
-3.0
 74
               0
  0
LTYPE
  5
30
100
AcDbSymbolTableRecord
100
AcDbLinetypeTableRecord
  2
ACAD_ISO14W100
 70
              64
  3
ISO dash triple-dot __ . . . __ . . . __ . . . 
 72
              65
 73
               8
 40
24.0
 49
12.0
 74
               0
 49
-3.0
 74
               0
 49
0.0
 74
               0
 49
-3.0
 74
               0
 49
0.0
 74
               0
 49
-3.0
 74
               0
 49
0.0
 74
               0
 49
-3.0
 74
               0
  0
LTYPE
  5
31
100
AcDbSymbolTableRecord
100
AcDbLinetypeTableRecord
  2
ACAD_ISO15W100
 70
              64
  3
ISO double-dash double-dot __ __ . . __ __ . . 
 72
              65
 73
              10
 40
39.0
 49
12.0
 74
               0
 49
-3.0
 74
               0
 49
12.0
 74
               0
 49
-3.0
 74
               0
 49
0.0
 74
               0
 49
-3.0
 74
               0
 49
0.0
 74
               0
 49
-3.0
 74
               0
 49
0.0
 74
               0
 49
-3.0
 74
               0
  0
ENDTAB
  0
TABLE
  2
LAYER
  5
2
100
AcDbSymbolTable
 70
              16
  0
LAYER
  5
14
100
AcDbSymbolTableRecord
100
AcDbLayerTableRecord
  2
0
 70
               0
 62
               7
  6
Continuous
  0
LAYER
  5
35
100
AcDbSymbolTableRecord
100
AcDbLayerTableRecord
  2
Layer00001
 70
               0
 62
               7
  6
Continuous
  0
LAYER
  5
36
100
AcDbSymbolTableRecord
100
AcDbLayerTableRecord
  2
Layer00002
 70
               0
 62
               7
  6
Continuous
  0
LAYER
  5
37
100
AcDbSymbolTableRecord
100
AcDbLayerTableRecord
  2
Layer00003
 70
               0
 62
               7
  6
Continuous
  0
LAYER
  5
38
100
AcDbSymbolTableRecord
100
AcDbLayerTableRecord
  2
Layer00004
 70
               0
 62
               7
  6
Continuous
  0
LAYER
  5
39
100
AcDbSymbolTableRecord
100
AcDbLayerTableRecord
  2
Layer00005
 70
               0
 62
               7
  6
Continuous
  0
LAYER
  5
3A
100
AcDbSymbolTableRecord
100
AcDbLayerTableRecord
  2
Layer00006
 70
               0
 62
               7
  6
Continuous
  0
LAYER
  5
3B
100
AcDbSymbolTableRecord
100
AcDbLayerTableRecord
  2
Layer00007
 70
               0
 62
               7
  6
Continuous
  0
LAYER
  5
3C
100
AcDbSymbolTableRecord
100
AcDbLayerTableRecord
  2
Layer00008
 70
               0
 62
               7
  6
Continuous
  0
LAYER
  5
3D
100
AcDbSymbolTableRecord
100
AcDbLayerTableRecord
  2
Layer00009
 70
               0
 62
               7
  6
Continuous
  0
LAYER
  5
3E
100
AcDbSymbolTableRecord
100
AcDbLayerTableRecord
  2
Layer00010
 70
               0
 62
               7
  6
Continuous
  0
LAYER
  5
3F
100
AcDbSymbolTableRecord
100
AcDbLayerTableRecord
  2
Layer00011
 70
               0
 62
               7
  6
Continuous
  0
LAYER
  5
40
100
AcDbSymbolTableRecord
100
AcDbLayerTableRecord
  2
Layer00012
 70
               0
 62
               7
  6
Continuous
  0
LAYER
  5
41
100
AcDbSymbolTableRecord
100
AcDbLayerTableRecord
  2
Layer00013
 70
               0
 62
               7
  6
Continuous
  0
LAYER
  5
42
100
AcDbSymbolTableRecord
100
AcDbLayerTableRecord
  2
Layer00014
 70
               0
 62
               7
  6
Continuous
  0
LAYER
  5
43
100
AcDbSymbolTableRecord
100
AcDbLayerTableRecord
  2
Layer00015
 70
               0
 62
               7
  6
Continuous
  0
ENDTAB
  0
TABLE
  2
STYLE
  5
3
100
AcDbSymbolTable
 70
               4
  0
STYLE
  5
17
100
AcDbSymbolTableRecord
100
AcDbTextStyleTableRecord
  2
Standard
 70
               0
 40
0.0
 41
1.0
 50
0.0
 71
               0
 42
0.0
  3
txt.shx
  4
bigfont.shx
  0
STYLE
  5
32
100
AcDbSymbolTableRecord
100
AcDbTextStyleTableRecord
  2
STANDARD_T
 70
               4
 40
0.0
 41
1.0
 50
0.0
 71
               0
 42
0.0
  3
txt.shx
  4
bigfont.shx
  0
STYLE
  5
33
100
AcDbSymbolTableRecord
100
AcDbTextStyleTableRecord
  2
FontTableH_0
 70
               0
 40
0.0
 41
1.0
 50
0.0
 71
               0
 42
0.0
  3
MS Gothic.ttf
  4

1001
ACAD
1000
MS Gothic
1071
    32817
  0
STYLE
  5
34
100
AcDbSymbolTableRecord
100
AcDbTextStyleTableRecord
  2
FontTableV_0
 70
               0
 40
0.0
 41
1.0
 50
0.0
 71
               0
 42
0.0
  3
@MS Gothic.ttf
  4

1001
ACAD
1000
@MS Gothic
1071
    32817
  0
ENDTAB
  0
TABLE
  2
VIEW
  5
5
100
AcDbSymbolTable
 70
               0
  0
ENDTAB
  0
TABLE
  2
UCS
  5
6
100
AcDbSymbolTable
 70
               0
  0
ENDTAB
  0
TABLE
  2
APPID
  5
8
100
AcDbSymbolTable
 70
               1
  0
APPID
  5
16
100
AcDbSymbolTableRecord
100
AcDbRegAppTableRecord
  2
ACAD
 70
               0
  0
ENDTAB
  0
TABLE
  2
DIMSTYLE
  5
9
100
AcDbSymbolTable
 70
               1
  0
DIMSTYLE
105
18
100
AcDbSymbolTableRecord
100
AcDbDimStyleTableRecord
  2
Standard
 70
               0
  3

  4

  5

  6

  7

 40
1.0
 41
0.18
 42
0.0625
 43
0.38
 44
0.18
 45
0.0
 46
0.0
 47
0.0
 48
0.0
 71
               0
 72
               0
 73
               1
 74
               1
 75
               0
 76
               0
 77
               0
 78
               0
140
0.18
141
0.09
142
0.0
143
25.399999999999999
144
1.0
145
0.0
146
1.0
147
0.09
170
               0
171
               2
172
               0
173
               0
174
               0
175
               0
176
               0
177
               0
178
               0
270
               2
271
               4
272
               4
273
               2
274
               2
275
               0
280
               0
281
               0
282
               0
283
               1
284
               0
285
               0
286
               0
287
               0
288
               0
340
17
  0
ENDTAB
  0
TABLE
  2
BLOCK_RECORD
  5
1
100
AcDbSymbolTable
 70
               0
  0
BLOCK_RECORD
  5
A
100
AcDbSymbolTableRecord
100
AcDbBlockTableRecord
  2
*MODEL_SPACE
  0
BLOCK_RECORD
  5
B
100
AcDbSymbolTableRecord
100
AcDbBlockTableRecord
  2
*PAPER_SPACE
  0
ENDTAB
  0
ENDSEC
  0
SECTION
  2
BLOCKS
  0
BLOCK
  5
D
100
AcDbEntity
  8
0
100
AcDbBlockBegin
  2
*MODEL_SPACE
 70
               0
 10
0.0
 20
0.0
 30
0.0
  3
*MODEL_SPACE
  1

  0
ENDBLK
  5
E
100
AcDbEntity
  8
0
100
AcDbBlockEnd
  0
BLOCK
  5
F
100
AcDbEntity
 67
               1
  8
0
100
AcDbBlockBegin
  2
*PAPER_SPACE
 70
               0
 10
0.0
 20
0.0
 30
0.0
  3
*PAPER_SPACE
  1

  0
ENDBLK
  5
10
100
AcDbEntity
 67
               1
  8
0
100
AcDbBlockEnd
  0
ENDSEC
  0
SECTION
  2
ENTITIES
  0
LINE
  5
44
100
AcDbEntity
  8
0
  6
Continuous
 62
               4
100
AcDbLine
 10
539.51483686445647
 20
163.11146577376215
 30
0.0
 11
560.17257462606312
 21
127.33121440122497
 31
0.0
  0
LINE
  5
45
100
AcDbEntity
  8
0
  6
Continuous
 62
               4
100
AcDbLine
 10
560.17257462606312
 20
127.33121440122497
 30
0.0
 11
609.70765100691619
 21
127.33121440122497
 31
0.0
  0
LINE
  5
46
100
AcDbEntity
  8
0
  6
Continuous
 62
               4
100
AcDbLine
 10
539.51483686445647
 20
163.11146577376215
 30
0.0
 11
545.29992535163524
 21
156.21706578569135
 31
0.0
  0
LINE
  5
47
100
AcDbEntity
  8
0
  6
Continuous
 62
               4
100
AcDbLine
 10
539.51483686445647
 20
163.11146577376215
 30
0.0
 11
542.59301815438744
 21
154.65423218668894
 31
0.0
  0
LINE
  5
48
100
AcDbEntity
  8
0
  6
Continuous
 62
               4
100
AcDbLine
 10
623.92583143869354
 20
209.89952363549108
 30
0.0
 11
623.92583143869354
 21
176.39952363549108
 31
0.0
  0
LINE
  5
49
100
AcDbEntity
  8
0
  6
Continuous
 62
               4
100
AcDbLine
 10
558.92583143869513
 20
264.10663041667937
 30
0.0
 11
558.92583143869513
 21
176.39952363549108
 31
0.0
  0
LINE
  5
4A
100
AcDbEntity
  8
0
  6
Continuous
 62
               4
100
AcDbLine
 10
623.92583143869354
 20
179.39952363549108
 30
0.0
 11
558.92583143869513
 21
179.39952363549108
 31
0.0
  0
LINE
  5
4B
100
AcDbEntity
  8
0
  6
Continuous
 62
               4
100
AcDbLine
 10
558.92583143869513
 20
179.39952363549108
 30
0.0
 11
518.92583143869354
 21
179.39952363549108
 31
0.0
  0
LINE
  5
4C
100
AcDbEntity
  8
0
  6
Continuous
 62
               4
100
AcDbLine
 10
567.92583143869376
 20
240.39952363549114
 30
0.0
 11
591.92583143869376
 21
240.39952363549114
 31
0.0
  0
LINE
  5
4D
100
AcDbEntity
  8
0
  6
Continuous
 62
               4
100
AcDbLine
 10
588.92583143869376
 20
240.39952363549114
 30
0.0
 11
588.92583143869376
 21
215.39952363549108
 31
0.0
  0
LINE
  5
4E
100
AcDbEntity
  8
0
  6
Continuous
 62
               4
100
AcDbLine
 10
505.88551035466833
 20
244.3995236354925
 30
0.0
 11
483.25078451551155
 21
221.76479779633573
 31
0.0
  0
LINE
  5
4F
100
AcDbEntity
  8
0
  6
Continuous
 62
               4
100
AcDbLine
 10
483.25078451551155
 20
221.76479779633573
 30
0.0
 11
367.37430478771432
 21
221.76479779633573
 31
0.0
  0
LINE
  5
50
100
AcDbEntity
  8
0
  6
Continuous
 62
               4
100
AcDbLine
 10
505.88551035466833
 20
244.3995236354925
 30
0.0
 11
500.72332242750895
 21
237.02715523689156
 31
0.0
  0
LINE
  5
51
100
AcDbEntity
  8
0
  6
Continuous
 62
               4
100
AcDbLine
 10
505.88551035466833
 20
244.3995236354925
 30
0.0
 11
498.51314195606744
 21
239.23733570833306
 31
0.0
  0
LINE
  5
52
100
AcDbEntity
  8
0
  6
Continuous
 62
               4
100
AcDbLine
 10
488.96498771379197
 20
259.8603673603946
 30
0.0
 11
469.06502442527767
 21
239.96040407188033
 31
0.0
  0
LINE
  5
53
100
AcDbEntity
  8
0
  6
Continuous
 62
               4
100
AcDbLine
 10
469.06502442527767
 20
239.96040407188033
 30
0.0
 11
407.49240437550026
 21
239.96040407188033
 31
0.0
  0
LINE
  5
54
100
AcDbEntity
  8
0
  6
Continuous
 62
               4
100
AcDbLine
 10
488.96498771379197
 20
259.8603673603946
 30
0.0
 11
483.80279978663259
 21
252.48799896179366
 31
0.0
  0
LINE
  5
55
100
AcDbEntity
  8
0
  6
Continuous
 62
               4
100
AcDbLine
 10
488.96498771379197
 20
259.8603673603946
 30
0.0
 11
481.59261931519097
 21
254.69817943323517
 31
0.0
  0
LINE
  5
56
100
AcDbEntity
  8
0
  6
Continuous
 62
               4
100
AcDbLine
 10
486.13293821988043
 20
256.89952363549259
 30
0.0
 11
349.92583143869388
 21
256.89952363549259
 31
0.0
  0
LINE
  5
57
100
AcDbEntity
  8
0
  6
Continuous
 62
               4
100
AcDbLine
 10
352.92583143869388
 20
291.8995236354927
 30
0.0
 11
352.92583143869388
 21
256.89952363549259
 31
0.0
  0
LINE
  5
58
100
AcDbEntity
  8
0
  6
Continuous
 62
               4
100
AcDbLine
 10
496.16083143869389
 20
216.89952363549125
 30
0.0
 11
349.92583143869388
 21
216.89952363549125
 31
0.0
  0
LINE
  5
59
100
AcDbEntity
  8
0
  6
Continuous
 62
               4
100
AcDbLine
 10
352.92583143869388
 20
256.89952363549259
 30
0.0
 11
352.92583143869388
 21
216.89952363549125
 31
0.0
  0
LINE
  5
5A
100
AcDbEntity
  8
0
  6
Continuous
 62
               4
100
AcDbLine
 10
496.16083143869389
 20
216.89952363549125
 30
0.0
 11
331.92583143869388
 21
216.89952363549125
 31
0.0
  0
LINE
  5
5B
100
AcDbEntity
  8
0
  6
Continuous
 62
               4
100
AcDbLine
 10
334.92583143869388
 20
216.89952363549125
 30
0.0
 11
334.92583143869388
 21
291.89952363549111
 31
0.0
  0
LINE
  5
5C
100
AcDbEntity
  8
0
  6
Continuous
 62
               4
100
AcDbLine
 10
295.18356957607517
 20
291.89952363549099
 30
0.0
 11
276.87396134365315
 21
260.1863519102547
 31
0.0
  0
LINE
  5
5D
100
AcDbEntity
  8
0
  6
Continuous
 62
               4
100
AcDbLine
 10
276.87396134365315
 20
260.1863519102547
 30
0.0
 11
166.73950892896795
 21
260.1863519102547
 31
0.0
  0
LINE
  5
5E
100
AcDbEntity
  8
0
  6
Continuous
 62
               4
100
AcDbLine
 10
295.18356957607517
 20
291.89952363549099
 30
0.0
 11
292.1053882861442
 21
283.44229004841787
 31
0.0
  0
LINE
  5
5F
100
AcDbEntity
  8
0
  6
Continuous
 62
               4
100
AcDbLine
 10
295.18356957607517
 20
291.89952363549099
 30
0.0
 11
289.39848108889635
 21
285.00512364742025
 31
0.0
  0
LINE
  5
60
100
AcDbEntity
  8
0
  6
Continuous
 62
               4
100
AcDbLine
 10
334.92583143869388
 20
291.89952363549111
 30
0.0
 11
334.92583143869388
 21
366.89956122854051
 31
0.0
  0
LINE
  5
61
100
AcDbEntity
  8
0
  6
Continuous
 62
               4
100
AcDbLine
 10
430.79907043670272
 20
325.90414731050652
 30
0.0
 11
417.94246149224278
 21
303.63584740565739
 31
0.0
  0
LINE
  5
62
100
AcDbEntity
  8
0
  6
Continuous
 62
               4
100
AcDbLine
 10
417.94246149224278
 20
303.63584740565739
 30
0.0
 11
380.07934677078555
 21
303.63584740565824
 31
0.0
  0
LINE
  5
63
100
AcDbEntity
  8
0
  6
Continuous
 62
               4
100
AcDbLine
 10
430.79907043670272
 20
325.90414731050652
 30
0.0
 11
427.7208891467717
 21
317.44691372343328
 31
0.0
  0
LINE
  5
64
100
AcDbEntity
  8
0
  6
Continuous
 62
               4
100
AcDbLine
 10
430.79907043670272
 20
325.90414731050652
 30
0.0
 11
425.0139819495239
 21
319.00974732243571
 31
0.0
  0
LINE
  5
65
100
AcDbEntity
  8
0
  6
Continuous
 62
               4
100
AcDbLine
 10
623.92583143869354
 20
248.85591015787526
 30
0.0
 11
664.71832625908178
 21
178.20123656147265
 31
0.0
  0
LINE
  5
66
100
AcDbEntity
  8
0
  6
Continuous
 62
               4
100
AcDbLine
 10
664.71832625908178
 20
178.20123656147265
 30
0.0
 11
749.96683082782454
 21
178.20123656147265
 31
0.0
  0
LINE
  5
67
100
AcDbEntity
  8
0
  6
Continuous
 62
               4
100
AcDbLine
 10
623.92583143869354
 20
248.85591015787526
 30
0.0
 11
629.71091992587242
 21
241.96151016980448
 31
0.0
  0
LINE
  5
68
100
AcDbEntity
  8
0
  6
Continuous
 62
               4
100
AcDbLine
 10
623.92583143869354
 20
248.85591015787526
 30
0.0
 11
627.00401272862462
 21
240.39867657080208
 31
0.0
  0
LINE
  5
69
100
AcDbEntity
  8
0
  6
Continuous
 62
               4
100
AcDbLine
 10
560.42583143869376
 20
254.62783108309651
 30
0.0
 11
582.3697662707508
 21
276.57176591515361
 31
0.0
  0
LINE
  5
6A
100
AcDbEntity
  8
0
  6
Continuous
 62
               4
100
AcDbLine
 10
582.3697662707508
 20
276.57176591515361
 30
0.0
 11
668.35204389783928
 21
276.57176591515361
 31
0.0
  0
LINE
  5
6B
100
AcDbEntity
  8
0
  6
Continuous
 62
               4
100
AcDbLine
 10
560.42583143869376
 20
254.62783108309651
 30
0.0
 11
565.58801936585314
 21
262.00019948169745
 31
0.0
  0
LINE
  5
6C
100
AcDbEntity
  8
0
  6
Continuous
 62
               4
100
AcDbLine
 10
560.42583143869376
 20
254.62783108309651
 30
0.0
 11
567.79819983729476
 21
259.79001901025595
 31
0.0
  0
LINE
  5
6D
100
AcDbEntity
  8
0
  6
Continuous
 62
               4
100
AcDbLine
 10
629.42583143869354
 20
215.39952363549108
 30
0.0
 11
698.92583143869354
 21
215.39952363549108
 31
0.0
  0
LINE
  5
6E
100
AcDbEntity
  8
0
  6
Continuous
 62
               4
100
AcDbLine
 10
629.42583143869354
 20
406.89952363549105
 30
0.0
 11
698.92583143869354
 21
406.89952363549105
 31
0.0
  0
LINE
  5
6F
100
AcDbEntity
  8
0
  6
Continuous
 62
               4
100
AcDbLine
 10
695.92583143869354
 20
215.39952363549108
 30
0.0
 11
695.92583143869354
 21
406.89952363549105
 31
0.0
  0
LINE
  5
70
100
AcDbEntity
  8
0
  6
Continuous
 62
               4
100
AcDbLine
 10
615.0297777308374
 20
341.57968724076363
 30
0.0
 11
635.29527996532534
 21
376.68056675179702
 31
0.0
  0
LINE
  5
71
100
AcDbEntity
  8
0
  6
Continuous
 62
               4
100
AcDbLine
 10
635.29527996532534
 20
376.68056675179702
 30
0.0
 11
745.29807763568658
 21
376.68056675179702
 31
0.0
  0
LINE
  5
72
100
AcDbEntity
  8
0
  6
Continuous
 62
               4
100
AcDbLine
 10
615.0297777308374
 20
341.57968724076363
 30
0.0
 11
618.10795902076848
 21
350.03692082783675
 31
0.0
  0
LINE
  5
73
100
AcDbEntity
  8
0
  6
Continuous
 62
               4
100
AcDbLine
 10
615.0297777308374
 20
341.57968724076363
 30
0.0
 11
620.81486621801628
 21
348.47408722883438
 31
0.0
  0
LINE
  5
74
100
AcDbEntity
  8
0
  6
Continuous
 62
               4
100
AcDbLine
 10
621.25735312795621
 20
393.85357769536716
 30
0.0
 11
644.86412096382935
 21
434.74169898958166
 31
0.0
  0
LINE
  5
75
100
AcDbEntity
  8
0
  6
Continuous
 62
               4
100
AcDbLine
 10
644.86412096382935
 20
434.74169898958166
 30
0.0
 11
717.16117788457382
 21
434.74169898958166
 31
0.0
  0
LINE
  5
76
100
AcDbEntity
  8
0
  6
Continuous
 62
               4
100
AcDbLine
 10
621.25735312795621
 20
393.85357769536716
 30
0.0
 11
624.33553441788729
 21
402.31081128244028
 31
0.0
  0
LINE
  5
77
100
AcDbEntity
  8
0
  6
Continuous
 62
               4
100
AcDbLine
 10
621.25735312795621
 20
393.85357769536716
 30
0.0
 11
627.04244161513509
 21
400.74797768343791
 31
0.0
  0
LINE
  5
78
100
AcDbEntity
  8
0
  6
Continuous
 62
               4
100
AcDbLine
 10
623.92583143869354
 20
412.39952363549111
 30
0.0
 11
623.92583143869354
 21
445.89952363549116
 31
0.0
  0
LINE
  5
79
100
AcDbEntity
  8
0
  6
Continuous
 62
               4
100
AcDbLine
 10
538.92583143869354
 20
412.39952363549111
 30
0.0
 11
538.92583143869354
 21
445.89952363549116
 31
0.0
  0
LINE
  5
7A
100
AcDbEntity
  8
0
  6
Continuous
 62
               4
100
AcDbLine
 10
623.92583143869354
 20
442.89952363549116
 30
0.0
 11
538.92583143869354
 21
442.89952363549116
 31
0.0
  0
LINE
  5
7B
100
AcDbEntity
  8
0
  6
Continuous
 62
               4
100
AcDbLine
 10
538.92583143869354
 20
442.89952363549116
 30
0.0
 11
518.92583143869354
 21
442.89952363549116
 31
0.0
  0
LINE
  5
7C
100
AcDbEntity
  8
0
  6
Continuous
 62
               4
100
AcDbLine
 10
623.92583143869354
 20
412.39952363549111
 30
0.0
 11
623.92583143869354
 21
463.89952363549116
 31
0.0
  0
LINE
  5
7D
100
AcDbEntity
  8
0
  6
Continuous
 62
               4
100
AcDbLine
 10
518.92583143869354
 20
460.89952363549116
 30
0.0
 11
623.92583143869354
 21
460.89952363549116
 31
0.0
  0
LINE
  5
7E
100
AcDbEntity
  8
0
  6
Continuous
 62
               4
100
AcDbLine
 10
533.42583143869354
 20
406.89952363549105
 30
0.0
 11
499.92583143869365
 21
406.89952363549105
 31
0.0
  0
LINE
  5
7F
100
AcDbEntity
  8
0
  6
Continuous
 62
               4
100
AcDbLine
 10
533.42583143869354
 20
386.89952363549111
 30
0.0
 11
499.92583143869365
 21
386.89952363549111
 31
0.0
  0
LINE
  5
80
100
AcDbEntity
  8
0
  6
Continuous
 62
               4
100
AcDbLine
 10
502.92583143869365
 20
406.89952363549105
 30
0.0
 11
502.92583143869365
 21
386.89952363549111
 31
0.0
  0
LINE
  5
81
100
AcDbEntity
  8
0
  6
Continuous
 62
               4
100
AcDbLine
 10
502.92583143869365
 20
386.89952363549111
 30
0.0
 11
502.92583143869365
 21
366.89953218872512
 31
0.0
  0
LINE
  5
82
100
AcDbEntity
  8
0
  6
Continuous
 62
               4
100
AcDbLine
 10
533.42583143869354
 20
406.89952363549105
 30
0.0
 11
481.92583143869354
 21
406.89952363549105
 31
0.0
  0
LINE
  5
83
100
AcDbEntity
  8
0
  6
Continuous
 62
               4
100
AcDbLine
 10
484.92583143869354
 20
366.89953312387115
 30
0.0
 11
484.92583143869354
 21
406.89952363549105
 31
0.0
  0
LINE
  5
84
100
AcDbEntity
  8
0
  6
Continuous
 62
               4
100
AcDbLine
 10
542.96313708779314
 20
374.87081210660853
 30
0.0
 11
506.75655659177687
 21
437.58244909404124
 31
0.0
  0
LINE
  5
85
100
AcDbEntity
  8
0
  6
Continuous
 62
               4
100
AcDbLine
 10
506.75655659177687
 20
437.58244909404124
 30
0.0
 11
445.49277933535313
 21
437.58244909404124
 31
0.0
  0
LINE
  5
86
100
AcDbEntity
  8
0
  6
Continuous
 62
               4
100
AcDbLine
 10
542.96313708779314
 20
374.87081210660853
 30
0.0
 11
537.17804860061437
 21
381.76521209467933
 31
0.0
  0
LINE
  5
87
100
AcDbEntity
  8
0
  6
Continuous
 62
               4
100
AcDbLine
 10
542.96313708779314
 20
374.87081210660853
 30
0.0
 11
539.88495579786218
 21
383.3280456936817
 31
0.0
  0
LINE
  5
88
100
AcDbEntity
  8
0
  6
Continuous
 62
               4
100
AcDbLine
 10
257.19116009360323
 20
372.89955666564083
 30
0.0
 11
257.19116009360323
 21
400.0327825557066
 31
0.0
  0
LINE
  5
89
100
AcDbEntity
  8
0
  6
Continuous
 62
               4
100
AcDbLine
 10
247.19116009360329
 20
397.0327825557066
 30
0.0
 11
257.19116009360323
 21
397.0327825557066
 31
0.0
  0
LINE
  5
8A
100
AcDbEntity
  8
0
  6
Continuous
 62
               4
100
AcDbLine
 10
237.19116009360323
 20
372.89955865700034
 30
0.0
 11
237.19116009360323
 21
400.0327825557066
 31
0.0
  0
LINE
  5
8B
100
AcDbEntity
  8
0
  6
Continuous
 62
               4
100
AcDbLine
 10
247.19116009360329
 20
397.0327825557066
 30
0.0
 11
237.19116009360323
 21
397.0327825557066
 31
0.0
  0
LINE
  5
8C
100
AcDbEntity
  8
0
  6
Continuous
 62
               4
100
AcDbLine
 10
222.19116009360329
 20
374.58286993508978
 30
0.0
 11
222.19116009360329
 21
418.03278255570649
 31
0.0
  0
LINE
  5
8D
100
AcDbEntity
  8
0
  6
Continuous
 62
               4
100
AcDbLine
 10
272.19116009360323
 20
374.58286993508978
 30
0.0
 11
272.19116009360323
 21
418.03278255570649
 31
0.0
  0
LINE
  5
8E
100
AcDbEntity
  8
0
  6
Continuous
 62
               4
100
AcDbLine
 10
222.19116009360329
 20
415.03278255570649
 30
0.0
 11
272.19116009360323
 21
415.03278255570649
 31
0.0
  0
LINE
  5
8F
100
AcDbEntity
  8
0
  6
Continuous
 62
               4
100
AcDbLine
 10
283.44116009360329
 20
355.48931849115399
 30
0.0
 11
306.4315964878964
 21
395.30992241425037
 31
0.0
  0
LINE
  5
90
100
AcDbEntity
  8
0
  6
Continuous
 62
               4
100
AcDbLine
 10
306.4315964878964
 20
395.30992241425037
 30
0.0
 11
355.88069862804122
 21
395.30992241425037
 31
0.0
  0
LINE
  5
91
100
AcDbEntity
  8
0
  6
Continuous
 62
               4
100
AcDbLine
 10
283.44116009360329
 20
355.48931849115399
 30
0.0
 11
286.51934138353431
 21
363.94655207822717
 31
0.0
  0
LINE
  5
92
100
AcDbEntity
  8
0
  6
Continuous
 62
               4
100
AcDbLine
 10
283.44116009360329
 20
355.48931849115399
 30
0.0
 11
289.22624858078211
 21
362.38371847922485
 31
0.0
  0
LINE
  5
93
100
AcDbEntity
  8
0
  6
Continuous
 62
               4
100
AcDbLine
 10
261.016621144672
 20
370.03278255570649
 30
0.0
 11
289.77444534786991
 21
419.84279519077921
 31
0.0
  0
LINE
  5
94
100
AcDbEntity
  8
0
  6
Continuous
 62
               4
100
AcDbLine
 10
289.77444534786991
 20
419.84279519077921
 30
0.0
 11
351.21092610039972
 21
419.84279519077921
 31
0.0
  0
LINE
  5
95
100
AcDbEntity
  8
0
  6
Continuous
 62
               4
100
AcDbLine
 10
261.016621144672
 20
370.03278255570649
 30
0.0
 11
264.09480243460303
 21
378.49001614277967
 31
0.0
  0
LINE
  5
96
100
AcDbEntity
  8
0
  6
Continuous
 62
               4
100
AcDbLine
 10
261.016621144672
 20
370.03278255570649
 30
0.0
 11
266.80170963185088
 21
376.92718254377729
 31
0.0
  0
LINE
  5
97
100
AcDbEntity
  8
0
  6
Continuous
 62
               4
100
AcDbLine
 10
234.22343571159746
 20
349.52418101361678
 30
0.0
 11
221.36077374974366
 21
327.24539697510232
 31
0.0
  0
LINE
  5
98
100
AcDbEntity
  8
0
  6
Continuous
 62
               4
100
AcDbLine
 10
221.36077374974366
 20
327.24539697510232
 30
0.0
 11
195.54564858034087
 21
327.24539697510232
 31
0.0
  0
LINE
  5
99
100
AcDbEntity
  8
0
  6
Continuous
 62
               4
100
AcDbLine
 10
234.22343571159746
 20
349.52418101361678
 30
0.0
 11
231.14525442166649
 21
341.06694742654361
 31
0.0
  0
LINE
  5
9A
100
AcDbEntity
  8
0
  6
Continuous
 62
               4
100
AcDbLine
 10
234.22343571159746
 20
349.52418101361678
 30
0.0
 11
228.43834722441864
 21
342.62978102554592
 31
0.0
  0
LINE
  5
9B
100
AcDbEntity
  8
0
  6
Continuous
 62
               4
100
AcDbLine
 10
714.78679656440374
 20
21.213203435596483
 30
0.0
 11
714.78679656440374
 21
41.213203435596483
 31
0.0
  0
LINE
  5
9C
100
AcDbEntity
  8
0
  6
Continuous
 62
               4
100
AcDbLine
 10
864.78679656440374
 20
21.213203435596483
 30
0.0
 11
714.78679656440374
 21
21.213203435596483
 31
0.0
  0
LINE
  5
9D
100
AcDbEntity
  8
0
  6
Continuous
 62
               4
100
AcDbLine
 10
864.78679656440374
 20
41.213203435596483
 30
0.0
 11
864.78679656440374
 21
21.213203435596483
 31
0.0
  0
LINE
  5
9E
100
AcDbEntity
  8
0
  6
Continuous
 62
               4
100
AcDbLine
 10
864.78679656440374
 20
41.213203435596483
 30
0.0
 11
714.78679656440374
 21
41.213203435596483
 31
0.0
  0
LINE
  5
9F
100
AcDbEntity
  8
0
  6
Continuous
 62
               4
100
AcDbLine
 10
14.142135623730949
 20
595.85786437626905
 30
0.0
 11
14.142135623730949
 21
615.85786437626905
 31
0.0
  0
LINE
  5
A0
100
AcDbEntity
  8
0
  6
Continuous
 62
               4
100
AcDbLine
 10
164.14213562373095
 20
595.85786437626905
 30
0.0
 11
14.142135623730949
 21
595.85786437626905
 31
0.0
  0
LINE
  5
A1
100
AcDbEntity
  8
0
  6
Continuous
 62
               4
100
AcDbLine
 10
164.14213562373095
 20
615.85786437626905
 30
0.0
 11
164.14213562373095
 21
595.85786437626905
 31
0.0
  0
LINE
  5
A2
100
AcDbEntity
  8
0
  6
Continuous
 62
               4
100
AcDbLine
 10
164.14213562373095
 20
615.85786437626905
 30
0.0
 11
14.142135623730949
 21
615.85786437626905
 31
0.0
  0
LINE
  5
A3
100
AcDbEntity
  8
0
  6
Continuous
 62
               7
100
AcDbLine
 10
501.42583143869376
 20
216.89952363549125
 30
0.0
 11
536.42583143869376
 21
216.89952363549125
 31
0.0
  0
LINE
  5
A4
100
AcDbEntity
  8
0
  6
Continuous
 62
               3
100
AcDbLine
 10
490.72583143869349
 20
346.8995236354919
 30
0.0
 11
490.72583143869349
 21
291.89952363549111
 31
0.0
  0
LINE
  5
A5
100
AcDbEntity
  8
0
  6
Continuous
 62
               6
100
AcDbLine
 10
551.79599788386133
 20
370.97575084131898
 30
0.0
 11
547.71977067803357
 21
366.89952363549111
 31
0.0
  0
LINE
  5
A6
100
AcDbEntity
  8
0
  6
Continuous
 62
               6
100
AcDbLine
 10
551.79599788386133
 20
375.21839152843819
 30
0.0
 11
543.47712999091425
 21
366.89952363549111
 31
0.0
  0
LINE
  5
A7
100
AcDbEntity
  8
0
  6
Continuous
 62
               6
100
AcDbLine
 10
551.79599788386133
 20
379.46103221555751
 30
0.0
 11
541.94298540950842
 21
369.6080197412046
 31
0.0
  0
LINE
  5
A8
100
AcDbEntity
  8
0
  6
Continuous
 62
               6
100
AcDbLine
 10
551.79599788386133
 20
383.70367290267671
 30
0.0
 11
542.96313708779314
 21
374.87081210660853
 31
0.0
  0
LINE
  5
A9
100
AcDbEntity
  8
0
  6
Continuous
 62
               6
100
AcDbLine
 10
550.74920792955629
 20
386.89952363549111
 30
0.0
 11
542.94844903526689
 21
379.09876474120171
 31
0.0
  0
LINE
  5
AA
100
AcDbEntity
  8
0
  6
Continuous
 62
               6
100
AcDbLine
 10
546.50656724243697
 20
386.89952363549111
 30
0.0
 11
542.34496293259315
 21
382.73791932564706
 31
0.0
  0
LINE
  5
AB
100
AcDbEntity
  8
0
  6
Continuous
 62
               6
100
AcDbLine
 10
542.26392655531788
 20
386.89952363549111
 30
0.0
 11
541.32131309136128
 21
385.95691017153473
 31
0.0
  0
LINE
  5
AC
100
AcDbEntity
  8
0
  6
Continuous
 62
               3
100
AcDbLine
 10
588.92583143869354
 20
362.99952363549147
 30
0.0
 11
588.92583143869354
 21
350.99952363549147
 31
0.0
  0
LINE
  5
AD
100
AcDbEntity
  8
0
  6
Continuous
 62
               7
100
AcDbLine
 10
559.92583143869376
 20
230.45283696617494
 30
0.0
 11
562.42583143869376
 21
230.45283696617494
 31
0.0
  0
LINE
  5
AE
100
AcDbEntity
  8
0
  6
Continuous
 62
               7
100
AcDbLine
 10
564.92583143869376
 20
231.45283696617494
 30
0.0
 11
562.92583143869376
 21
231.45283696617494
 31
0.0
  0
LINE
  5
AF
100
AcDbEntity
  8
0
  6
Continuous
 62
               7
100
AcDbLine
 10
562.42583143869376
 20
230.95283696617494
 30
0.0
 11
562.42583143869376
 21
230.45283696617494
 31
0.0
  0
LINE
  5
B0
100
AcDbEntity
  8
0
  6
Continuous
 62
               7
100
AcDbLine
 10
559.92583143869376
 20
228.45283696617494
 30
0.0
 11
559.92583143869376
 21
231.45283696617494
 31
0.0
  0
LINE
  5
B1
100
AcDbEntity
  8
0
  6
Continuous
 62
               7
100
AcDbLine
 10
558.92502369009947
 20
229.60419856398013
 30
0.0
 11
558.92502369011652
 21
229.604199537705
 31
0.0
  0
LINE
  5
B2
100
AcDbEntity
  8
0
  6
Continuous
 62
               7
100
AcDbLine
 10
565.42583143869376
 20
230.95283696617494
 30
0.0
 11
565.42583143869376
 21
228.45283696617494
 31
0.0
  0
LINE
  5
B3
100
AcDbEntity
  8
0
  6
Continuous
 62
               7
100
AcDbLine
 10
558.92502369009947
 20
229.60419856398013
 30
0.0
 11
558.92502369009947
 21
228.45283696617494
 31
0.0
  0
LINE
  5
B4
100
AcDbEntity
  8
0
  6
Continuous
 62
               7
100
AcDbLine
 10
559.92583143869376
 20
226.45283696617494
 30
0.0
 11
562.42583143869376
 21
226.45283696617494
 31
0.0
  0
LINE
  5
B5
100
AcDbEntity
  8
0
  6
Continuous
 62
               7
100
AcDbLine
 10
564.92583143869376
 20
225.45283696617494
 30
0.0
 11
562.92583143869376
 21
225.45283696617494
 31
0.0
  0
LINE
  5
B6
100
AcDbEntity
  8
0
  6
Continuous
 62
               7
100
AcDbLine
 10
562.42583143869376
 20
225.95283696617494
 30
0.0
 11
562.42583143869376
 21
226.45283696617494
 31
0.0
  0
LINE
  5
B7
100
AcDbEntity
  8
0
  6
Continuous
 62
               7
100
AcDbLine
 10
559.92583143869376
 20
228.45283696617494
 30
0.0
 11
559.92583143869376
 21
225.45283696617494
 31
0.0
  0
LINE
  5
B8
100
AcDbEntity
  8
0
  6
Continuous
 62
               7
100
AcDbLine
 10
558.92502369009947
 20
227.30147536836981
 30
0.0
 11
558.92502369011652
 21
227.30147439464494
 31
0.0
  0
LINE
  5
B9
100
AcDbEntity
  8
0
  6
Continuous
 62
               7
100
AcDbLine
 10
565.42583143869376
 20
225.95283696617494
 30
0.0
 11
565.42583143869376
 21
228.45283696617494
 31
0.0
  0
LINE
  5
BA
100
AcDbEntity
  8
0
  6
Continuous
 62
               7
100
AcDbLine
 10
558.92502369009947
 20
227.30147536836981
 30
0.0
 11
558.92502369009947
 21
228.45283696617494
 31
0.0
  0
LINE
  5
BB
100
AcDbEntity
  8
0
  6
Continuous
 62
               7
100
AcDbLine
 10
562.42583143869376
 20
230.45283696617494
 30
0.0
 11
562.42583143869376
 21
225.95283696617494
 31
0.0
  0
LINE
  5
BC
100
AcDbEntity
  8
0
  6
Continuous
 62
               6
100
AcDbLine
 10
589.92583143869354
 20
297.19952363549106
 30
0.0
 11
589.92583143869354
 21
401.89952363549111
 31
0.0
  0
LINE
  5
BD
100
AcDbEntity
  8
0
  6
Continuous
 62
               6
100
AcDbLine
 10
619.92583143869354
 20
297.19952363549106
 30
0.0
 11
619.92583143869354
 21
397.89952363549111
 31
0.0
  0
LINE
  5
BE
100
AcDbEntity
  8
0
  6
DASHED
 62
               6
100
AcDbLine
 10
616.92583143869354
 20
297.19952363549106
 30
0.0
 11
616.92583143869354
 21
401.89952363549111
 31
0.0
  0
LINE
  5
BF
100
AcDbEntity
  8
0
  6
Continuous
 62
               6
100
AcDbLine
 10
615.92583143869354
 20
401.89952363549111
 30
0.0
 11
589.92583143869354
 21
401.89952363549111
 31
0.0
  0
LINE
  5
C0
100
AcDbEntity
  8
0
  6
Continuous
 62
               6
100
AcDbLine
 10
589.92583143869354
 20
297.19952363549106
 30
0.0
 11
619.92583143869354
 21
297.19952363549106
 31
0.0
  0
LINE
  5
C1
100
AcDbEntity
  8
0
  6
Continuous
 62
               7
100
AcDbLine
 10
522.92583143869376
 20
317.3225732774975
 30
0.0
 11
516.42583143869376
 21
317.3225732774975
 31
0.0
  0
LINE
  5
C2
100
AcDbEntity
  8
0
  6
Continuous
 62
               7
100
AcDbLine
 10
513.92583143869376
 20
318.3225732774975
 30
0.0
 11
515.92583143869376
 21
318.3225732774975
 31
0.0
  0
LINE
  5
C3
100
AcDbEntity
  8
0
  6
Continuous
 62
               7
100
AcDbLine
 10
516.42583143869376
 20
317.8225732774975
 30
0.0
 11
516.42583143869376
 21
317.3225732774975
 31
0.0
  0
LINE
  5
C4
100
AcDbEntity
  8
0
  6
Continuous
 62
               7
100
AcDbLine
 10
522.92583143869376
 20
315.3225732774975
 30
0.0
 11
522.92583143869376
 21
318.3225732774975
 31
0.0
  0
LINE
  5
C5
100
AcDbEntity
  8
0
  6
Continuous
 62
               7
100
AcDbLine
 10
523.92663918728806
 20
316.47393487530275
 30
0.0
 11
523.92663918727101
 21
316.47393584902755
 31
0.0
  0
LINE
  5
C6
100
AcDbEntity
  8
0
  6
Continuous
 62
               7
100
AcDbLine
 10
513.42583143869376
 20
317.8225732774975
 30
0.0
 11
513.42583143869376
 21
315.3225732774975
 31
0.0
  0
LINE
  5
C7
100
AcDbEntity
  8
0
  6
Continuous
 62
               7
100
AcDbLine
 10
523.92663918728806
 20
316.47393487530275
 30
0.0
 11
523.92663918728806
 21
315.3225732774975
 31
0.0
  0
LINE
  5
C8
100
AcDbEntity
  8
0
  6
Continuous
 62
               7
100
AcDbLine
 10
522.92583143869376
 20
313.3225732774975
 30
0.0
 11
516.42583143869376
 21
313.3225732774975
 31
0.0
  0
LINE
  5
C9
100
AcDbEntity
  8
0
  6
Continuous
 62
               7
100
AcDbLine
 10
513.92583143869376
 20
312.3225732774975
 30
0.0
 11
515.92583143869376
 21
312.3225732774975
 31
0.0
  0
LINE
  5
CA
100
AcDbEntity
  8
0
  6
Continuous
 62
               7
100
AcDbLine
 10
516.42583143869376
 20
312.8225732774975
 30
0.0
 11
516.42583143869376
 21
313.3225732774975
 31
0.0
  0
LINE
  5
CB
100
AcDbEntity
  8
0
  6
Continuous
 62
               7
100
AcDbLine
 10
522.92583143869376
 20
315.3225732774975
 30
0.0
 11
522.92583143869376
 21
312.3225732774975
 31
0.0
  0
LINE
  5
CC
100
AcDbEntity
  8
0
  6
Continuous
 62
               7
100
AcDbLine
 10
523.92663918728806
 20
314.17121167969236
 30
0.0
 11
523.92663918727101
 21
314.17121070596755
 31
0.0
  0
LINE
  5
CD
100
AcDbEntity
  8
0
  6
Continuous
 62
               7
100
AcDbLine
 10
513.42583143869376
 20
312.8225732774975
 30
0.0
 11
513.42583143869376
 21
315.3225732774975
 31
0.0
  0
LINE
  5
CE
100
AcDbEntity
  8
0
  6
Continuous
 62
               7
100
AcDbLine
 10
523.92663918728806
 20
314.17121167969236
 30
0.0
 11
523.92663918728806
 21
315.3225732774975
 31
0.0
  0
LINE
  5
CF
100
AcDbEntity
  8
0
  6
Continuous
 62
               7
100
AcDbLine
 10
516.42583143869376
 20
317.3225732774975
 30
0.0
 11
516.42583143869376
 21
312.8225732774975
 31
0.0
  0
LINE
  5
D0
100
AcDbEntity
  8
0
  6
Continuous
 62
               7
100
AcDbLine
 10
477.99773531930452
 20
195.40075218278085
 30
0.0
 11
442.92583143869354
 21
195.39952363549125
 31
0.0
  0
LINE
  5
D1
100
AcDbEntity
  8
0
  6
Continuous
 62
               7
100
AcDbLine
 10
442.92583143869354
 20
177.89952363549125
 30
0.0
 11
442.92583143869354
 21
195.39952363549125
 31
0.0
  0
LINE
  5
D2
100
AcDbEntity
  8
0
  6
Continuous
 62
               7
100
AcDbLine
 10
442.92583143869354
 20
195.39952363549125
 30
0.0
 11
435.42583143869354
 21
202.89952363549131
 31
0.0
  0
LINE
  5
D3
100
AcDbEntity
  8
0
  6
Continuous
 62
               7
100
AcDbLine
 10
435.42583143869354
 20
202.89952363549131
 30
0.0
 11
435.42583143869354
 21
177.89952363549125
 31
0.0
  0
LINE
  5
D4
100
AcDbEntity
  8
0
  6
Continuous
 62
               7
100
AcDbLine
 10
477.99773531930452
 20
160.39829508820165
 30
0.0
 11
442.92583143869354
 21
160.39952363549125
 31
0.0
  0
LINE
  5
D5
100
AcDbEntity
  8
0
  6
Continuous
 62
               7
100
AcDbLine
 10
442.92583143869354
 20
177.89952363549125
 30
0.0
 11
442.92583143869354
 21
160.39952363549125
 31
0.0
  0
LINE
  5
D6
100
AcDbEntity
  8
0
  6
Continuous
 62
               7
100
AcDbLine
 10
442.92583143869354
 20
160.39952363549125
 30
0.0
 11
435.42583143869354
 21
152.89952363549122
 31
0.0
  0
LINE
  5
D7
100
AcDbEntity
  8
0
  6
Continuous
 62
               7
100
AcDbLine
 10
435.42583143869354
 20
152.89952363549122
 30
0.0
 11
435.42583143869354
 21
177.89952363549125
 31
0.0
  0
LINE
  5
D8
100
AcDbEntity
  8
0
  6
Continuous
 62
               7
100
AcDbLine
 10
479.92583143869354
 20
161.01017788143562
 30
0.0
 11
479.92583143869354
 21
194.78886938954443
 31
0.0
  0
LINE
  5
D9
100
AcDbEntity
  8
0
  6
Continuous
 62
               7
100
AcDbLine
 10
535.81517719274927
 20
138.89952363549128
 30
0.0
 11
502.0364856846403
 21
138.89952363549131
 31
0.0
  0
LINE
  5
DA
100
AcDbEntity
  8
0
  6
Continuous
 62
               7
100
AcDbLine
 10
557.92583143869354
 20
194.78886938954687
 30
0.0
 11
557.92583143869354
 21
161.01017788143812
 31
0.0
  0
LINE
  5
DB
100
AcDbEntity
  8
0
  6
Continuous
 62
               6
100
AcDbLine
 10
588.92583143869354
 20
354.70649738648586
 30
0.0
 11
585.21885768769914
 21
350.99952363549147
 31
0.0
  0
LINE
  5
DC
100
AcDbEntity
  8
0
  6
Continuous
 62
               6
100
AcDbLine
 10
588.92583143869354
 20
361.7775651983514
 30
0.0
 11
578.14778987583361
 21
350.99952363549147
 31
0.0
  0
LINE
  5
DD
100
AcDbEntity
  8
0
  6
Continuous
 62
               6
100
AcDbLine
 10
583.07672206396808
 20
362.99952363549147
 30
0.0
 11
571.07672206396808
 21
350.99952363549147
 31
0.0
  0
LINE
  5
DE
100
AcDbEntity
  8
0
  6
Continuous
 62
               6
100
AcDbLine
 10
576.00565425210254
 20
362.99952363549147
 30
0.0
 11
564.00565425210254
 21
350.99952363549147
 31
0.0
  0
LINE
  5
DF
100
AcDbEntity
  8
0
  6
Continuous
 62
               6
100
AcDbLine
 10
568.93458644023724
 20
362.99952363549147
 30
0.0
 11
556.93458644023724
 21
350.99952363549147
 31
0.0
  0
LINE
  5
E0
100
AcDbEntity
  8
0
  6
Continuous
 62
               6
100
AcDbLine
 10
561.86351862837171
 20
362.99952363549147
 30
0.0
 11
549.86351862837171
 21
350.99952363549147
 31
0.0
  0
LINE
  5
E1
100
AcDbEntity
  8
0
  6
Continuous
 62
               6
100
AcDbLine
 10
554.79245081650618
 20
362.99952363549147
 30
0.0
 11
542.79245081650618
 21
350.99952363549147
 31
0.0
  0
LINE
  5
E2
100
AcDbEntity
  8
0
  6
Continuous
 62
               6
100
AcDbLine
 10
547.72138300464064
 20
362.99952363549147
 30
0.0
 11
535.72138300464064
 21
350.99952363549147
 31
0.0
  0
LINE
  5
E3
100
AcDbEntity
  8
0
  6
Continuous
 62
               6
100
AcDbLine
 10
540.65031519277534
 20
362.99952363549147
 30
0.0
 11
528.65031519277511
 21
350.99952363549147
 31
0.0
  0
LINE
  5
E4
100
AcDbEntity
  8
0
  6
Continuous
 62
               6
100
AcDbLine
 10
533.57924738090981
 20
362.99952363549147
 30
0.0
 11
521.57924738090981
 21
350.99952363549147
 31
0.0
  0
LINE
  5
E5
100
AcDbEntity
  8
0
  6
Continuous
 62
               6
100
AcDbLine
 10
526.50817956904427
 20
362.99952363549147
 30
0.0
 11
514.50817956904427
 21
350.99952363549147
 31
0.0
  0
LINE
  5
E6
100
AcDbEntity
  8
0
  6
Continuous
 62
               6
100
AcDbLine
 10
519.43711175717874
 20
362.99952363549147
 30
0.0
 11
507.43711175717874
 21
350.99952363549147
 31
0.0
  0
LINE
  5
E7
100
AcDbEntity
  8
0
  6
Continuous
 62
               6
100
AcDbLine
 10
512.36604394531321
 20
362.99952363549147
 30
0.0
 11
500.36604394531321
 21
350.99952363549147
 31
0.0
  0
LINE
  5
E8
100
AcDbEntity
  8
0
  6
Continuous
 62
               6
100
AcDbLine
 10
505.2949761334479
 20
362.99952363549147
 30
0.0
 11
493.2949761334479
 21
350.99952363549147
 31
0.0
  0
LINE
  5
E9
100
AcDbEntity
  8
0
  6
Continuous
 62
               6
100
AcDbLine
 10
498.22390832158237
 20
362.99952363549147
 30
0.0
 11
486.22390832158237
 21
350.99952363549147
 31
0.0
  0
LINE
  5
EA
100
AcDbEntity
  8
0
  6
Continuous
 62
               6
100
AcDbLine
 10
491.15284050971684
 20
362.99952363549147
 30
0.0
 11
479.15284050971684
 21
350.99952363549147
 31
0.0
  0
LINE
  5
EB
100
AcDbEntity
  8
0
  6
Continuous
 62
               6
100
AcDbLine
 10
484.08177269785131
 20
362.99952363549147
 30
0.0
 11
472.08177269785131
 21
350.99952363549147
 31
0.0
  0
LINE
  5
EC
100
AcDbEntity
  8
0
  6
Continuous
 62
               6
100
AcDbLine
 10
477.010704885986
 20
362.99952363549147
 30
0.0
 11
465.010704885986
 21
350.99952363549147
 31
0.0
  0
LINE
  5
ED
100
AcDbEntity
  8
0
  6
Continuous
 62
               6
100
AcDbLine
 10
469.93963707412047
 20
362.99952363549147
 30
0.0
 11
457.93963707412047
 21
350.99952363549147
 31
0.0
  0
LINE
  5
EE
100
AcDbEntity
  8
0
  6
Continuous
 62
               6
100
AcDbLine
 10
462.86856926225494
 20
362.99952363549147
 30
0.0
 11
450.86856926225494
 21
350.99952363549147
 31
0.0
  0
LINE
  5
EF
100
AcDbEntity
  8
0
  6
Continuous
 62
               6
100
AcDbLine
 10
455.7975014503894
 20
362.99952363549147
 30
0.0
 11
443.7975014503894
 21
350.99952363549147
 31
0.0
  0
LINE
  5
F0
100
AcDbEntity
  8
0
  6
Continuous
 62
               6
100
AcDbLine
 10
448.7264336385241
 20
362.99952363549147
 30
0.0
 11
436.7264336385241
 21
350.99952363549147
 31
0.0
  0
LINE
  5
F1
100
AcDbEntity
  8
0
  6
Continuous
 62
               6
100
AcDbLine
 10
441.65536582665857
 20
362.99952363549147
 30
0.0
 11
429.65536582665857
 21
350.99952363549147
 31
0.0
  0
LINE
  5
F2
100
AcDbEntity
  8
0
  6
Continuous
 62
               6
100
AcDbLine
 10
434.58429801479303
 20
362.99952363549147
 30
0.0
 11
422.58429801479303
 21
350.99952363549147
 31
0.0
  0
LINE
  5
F3
100
AcDbEntity
  8
0
  6
Continuous
 62
               6
100
AcDbLine
 10
427.5132302029275
 20
362.99952363549147
 30
0.0
 11
415.5132302029275
 21
350.99952363549147
 31
0.0
  0
LINE
  5
F4
100
AcDbEntity
  8
0
  6
Continuous
 62
               6
100
AcDbLine
 10
420.4421623910622
 20
362.99952363549147
 30
0.0
 11
408.4421623910622
 21
350.99952363549147
 31
0.0
  0
LINE
  5
F5
100
AcDbEntity
  8
0
  6
Continuous
 62
               6
100
AcDbLine
 10
413.37109457919667
 20
362.99952363549147
 30
0.0
 11
401.37109457919667
 21
350.99952363549147
 31
0.0
  0
LINE
  5
F6
100
AcDbEntity
  8
0
  6
Continuous
 62
               6
100
AcDbLine
 10
406.30002676733125
 20
362.99952363549147
 30
0.0
 11
394.30002676733125
 21
350.99952363549147
 31
0.0
  0
LINE
  5
F7
100
AcDbEntity
  8
0
  6
Continuous
 62
               6
100
AcDbLine
 10
399.22895895546571
 20
362.99952363549147
 30
0.0
 11
387.22895895546571
 21
350.99952363549147
 31
0.0
  0
LINE
  5
F8
100
AcDbEntity
  8
0
  6
Continuous
 62
               6
100
AcDbLine
 10
392.1578911436003
 20
362.99952363549147
 30
0.0
 11
380.1578911436003
 21
350.99952363549147
 31
0.0
  0
LINE
  5
F9
100
AcDbEntity
  8
0
  6
Continuous
 62
               6
100
AcDbLine
 10
385.08682333173476
 20
362.99952363549147
 30
0.0
 11
373.08682333173476
 21
350.99952363549147
 31
0.0
  0
LINE
  5
FA
100
AcDbEntity
  8
0
  6
Continuous
 62
               6
100
AcDbLine
 10
378.01575551986934
 20
362.99952363549147
 30
0.0
 11
366.01575551986934
 21
350.99952363549147
 31
0.0
  0
LINE
  5
FB
100
AcDbEntity
  8
0
  6
Continuous
 62
               6
100
AcDbLine
 10
370.94468770800381
 20
362.99952363549147
 30
0.0
 11
358.94468770800381
 21
350.99952363549147
 31
0.0
  0
LINE
  5
FC
100
AcDbEntity
  8
0
  6
Continuous
 62
               6
100
AcDbLine
 10
363.87361989613839
 20
362.99952363549147
 30
0.0
 11
351.87361989613839
 21
350.99952363549147
 31
0.0
  0
LINE
  5
FD
100
AcDbEntity
  8
0
  6
Continuous
 62
               6
100
AcDbLine
 10
356.80255208427286
 20
362.99952363549147
 30
0.0
 11
344.80255208427286
 21
350.99952363549147
 31
0.0
  0
LINE
  5
FE
100
AcDbEntity
  8
0
  6
Continuous
 62
               6
100
AcDbLine
 10
491.2258314386944
 20
350.09954957134966
 30
0.0
 11
518.92583143869331
 21
350.09952363549115
 31
0.0
  0
LINE
  5
FF
100
AcDbEntity
  8
0
  6
Continuous
 62
               6
100
AcDbLine
 10
546.62583143869335
 20
350.09952363549115
 30
0.0
 11
518.92583143869331
 21
350.09952363549115
 31
0.0
  0
LINE
  5
100
100
AcDbEntity
  8
0
  6
DOT
 62
               4
100
AcDbLine
 10
495.160683228533
 20
350.29952363549097
 30
0.0
 11
504.69097964885339
 21
350.29952363549097
 31
0.0
  0
LINE
  5
101
100
AcDbEntity
  8
0
  6
DOT
 62
               4
100
AcDbLine
 10
497.42583143869331
 20
348.03437542533078
 30
0.0
 11
497.42583143869331
 21
327.04952363549086
 31
0.0
  0
LINE
  5
102
100
AcDbEntity
  8
0
  6
DOT
 62
               4
100
AcDbLine
 10
502.42583143869331
 20
348.03437542533078
 30
0.0
 11
502.42583143869331
 21
327.04952363549086
 31
0.0
  0
LINE
  5
103
100
AcDbEntity
  8
0
  6
DOT
 62
               4
100
AcDbLine
 10
497.42583143869331
 20
348.03437542533078
 30
0.0
 11
495.160683228533
 21
350.29952363549097
 31
0.0
  0
LINE
  5
104
100
AcDbEntity
  8
0
  6
DOT
 62
               4
100
AcDbLine
 10
497.42583143869331
 20
327.04952363549086
 30
0.0
 11
499.92583143869331
 21
325.29952363549097
 31
0.0
  0
LINE
  5
105
100
AcDbEntity
  8
0
  6
DOT
 62
               4
100
AcDbLine
 10
502.42583143869331
 20
348.03437542533078
 30
0.0
 11
504.69097964885339
 21
350.29952363549097
 31
0.0
  0
LINE
  5
106
100
AcDbEntity
  8
0
  6
DOT
 62
               4
100
AcDbLine
 10
502.42583143869331
 20
327.04952363549086
 30
0.0
 11
499.92583143869331
 21
325.29952363549097
 31
0.0
  0
LINE
  5
107
100
AcDbEntity
  8
0
  6
DOT
 62
               4
100
AcDbLine
 10
542.69097964885361
 20
350.29952363549097
 30
0.0
 11
533.160683228533
 21
350.29952363549097
 31
0.0
  0
LINE
  5
108
100
AcDbEntity
  8
0
  6
DOT
 62
               4
100
AcDbLine
 10
540.42583143869331
 20
348.03437542533078
 30
0.0
 11
540.42583143869331
 21
327.04952363549086
 31
0.0
  0
LINE
  5
109
100
AcDbEntity
  8
0
  6
DOT
 62
               4
100
AcDbLine
 10
535.42583143869331
 20
348.03437542533078
 30
0.0
 11
535.42583143869331
 21
327.04952363549086
 31
0.0
  0
LINE
  5
10A
100
AcDbEntity
  8
0
  6
DOT
 62
               4
100
AcDbLine
 10
540.42583143869331
 20
348.03437542533078
 30
0.0
 11
542.69097964885361
 21
350.29952363549097
 31
0.0
  0
LINE
  5
10B
100
AcDbEntity
  8
0
  6
DOT
 62
               4
100
AcDbLine
 10
540.42583143869331
 20
327.04952363549086
 30
0.0
 11
537.92583143869331
 21
325.29952363549097
 31
0.0
  0
LINE
  5
10C
100
AcDbEntity
  8
0
  6
DOT
 62
               4
100
AcDbLine
 10
535.42583143869331
 20
348.03437542533078
 30
0.0
 11
533.160683228533
 21
350.29952363549097
 31
0.0
  0
LINE
  5
10D
100
AcDbEntity
  8
0
  6
DOT
 62
               4
100
AcDbLine
 10
535.42583143869331
 20
327.04952363549086
 30
0.0
 11
537.92583143869331
 21
325.29952363549097
 31
0.0
  0
LINE
  5
10E
100
AcDbEntity
  8
0
  6
Continuous
 62
               6
100
AcDbLine
 10
426.42583143869331
 20
346.89952363549293
 30
0.0
 11
426.42583143869331
 21
311.89952363549133
 31
0.0
  0
LINE
  5
10F
100
AcDbEntity
  8
0
  6
Continuous
 62
               6
100
AcDbLine
 10
426.42583143869331
 20
311.89952363549179
 30
0.0
 11
491.42583143869331
 21
311.89952363549179
 31
0.0
  0
LINE
  5
110
100
AcDbEntity
  8
0
  6
Continuous
 62
               6
100
AcDbLine
 10
491.42583143869331
 20
311.89952363549179
 30
0.0
 11
491.42583143869331
 21
346.89952363549349
 31
0.0
  0
LINE
  5
111
100
AcDbEntity
  8
0
  6
Continuous
 62
               6
100
AcDbLine
 10
426.42583143869331
 20
346.89952363549293
 30
0.0
 11
611.42583143869513
 21
346.89952363549293
 31
0.0
  0
LINE
  5
112
100
AcDbEntity
  8
0
  6
Continuous
 62
               6
100
AcDbLine
 10
611.42583143869513
 20
346.89952363549293
 30
0.0
 11
611.42583143869513
 21
311.89952363549133
 31
0.0
  0
LINE
  5
113
100
AcDbEntity
  8
0
  6
Continuous
 62
               6
100
AcDbLine
 10
611.42583143869535
 20
311.89952363549179
 30
0.0
 11
546.4258314386949
 21
311.89952363549179
 31
0.0
  0
LINE
  5
114
100
AcDbEntity
  8
0
  6
Continuous
 62
               6
100
AcDbLine
 10
546.42584364572451
 20
311.89952363549293
 30
0.0
 11
546.4258314386949
 21
346.89952363549349
 31
0.0
  0
LINE
  5
115
100
AcDbEntity
  8
0
  6
DOT
 62
               6
100
AcDbLine
 10
488.22583143869326
 20
346.89952363549293
 30
0.0
 11
488.22583143869326
 21
311.89952363549133
 31
0.0
  0
LINE
  5
116
100
AcDbEntity
  8
0
  6
DOT
 62
               6
100
AcDbLine
 10
549.62583143869472
 20
346.89952363549145
 30
0.0
 11
549.62583143869472
 21
311.89952363548986
 31
0.0
  0
LINE
  5
117
100
AcDbEntity
  8
0
  6
Continuous
 62
               6
100
AcDbLine
 10
546.4258314386949
 20
350.09952363549354
 30
0.0
 11
491.42583143869331
 21
350.09952363549354
 31
0.0
  0
LINE
  5
118
100
AcDbEntity
  8
0
  6
Continuous
 62
               6
100
AcDbLine
 10
435.89583143869311
 20
329.39952363548986
 30
0.0
 11
438.66083143869321
 21
334.18864411841804
 31
0.0
  0
LINE
  5
119
100
AcDbEntity
  8
0
  6
Continuous
 62
               6
100
AcDbLine
 10
438.66083143869321
 20
334.18864411841804
 30
0.0
 11
444.19083143869318
 21
334.18864411841804
 31
0.0
  0
LINE
  5
11A
100
AcDbEntity
  8
0
  6
Continuous
 62
               6
100
AcDbLine
 10
444.19083143869318
 20
334.18864411841804
 30
0.0
 11
446.95583143869328
 21
329.39952363548986
 31
0.0
  0
LINE
  5
11B
100
AcDbEntity
  8
0
  6
Continuous
 62
               6
100
AcDbLine
 10
446.95583143869328
 20
329.39952363548986
 30
0.0
 11
444.19083143869318
 21
324.6104031525619
 31
0.0
  0
LINE
  5
11C
100
AcDbEntity
  8
0
  6
Continuous
 62
               6
100
AcDbLine
 10
444.19083143869318
 20
324.6104031525619
 30
0.0
 11
438.66083143869321
 21
324.6104031525619
 31
0.0
  0
LINE
  5
11D
100
AcDbEntity
  8
0
  6
Continuous
 62
               6
100
AcDbLine
 10
438.66083143869321
 20
324.6104031525619
 30
0.0
 11
435.89583143869311
 21
329.39952363548986
 31
0.0
  0
LINE
  5
11E
100
AcDbEntity
  8
0
  6
Continuous
 62
               6
100
AcDbLine
 10
470.89583143869334
 20
329.39952363548986
 30
0.0
 11
473.66083143869321
 21
334.18864411841804
 31
0.0
  0
LINE
  5
11F
100
AcDbEntity
  8
0
  6
Continuous
 62
               6
100
AcDbLine
 10
473.66083143869321
 20
334.18864411841804
 30
0.0
 11
479.19083143869318
 21
334.18864411841804
 31
0.0
  0
LINE
  5
120
100
AcDbEntity
  8
0
  6
Continuous
 62
               6
100
AcDbLine
 10
479.19083143869318
 20
334.18864411841804
 30
0.0
 11
481.95583143869328
 21
329.39952363548986
 31
0.0
  0
LINE
  5
121
100
AcDbEntity
  8
0
  6
Continuous
 62
               6
100
AcDbLine
 10
481.95583143869328
 20
329.39952363548986
 30
0.0
 11
479.19083143869318
 21
324.6104031525619
 31
0.0
  0
LINE
  5
122
100
AcDbEntity
  8
0
  6
Continuous
 62
               6
100
AcDbLine
 10
479.19083143869318
 20
324.6104031525619
 30
0.0
 11
473.66083143869321
 21
324.6104031525619
 31
0.0
  0
LINE
  5
123
100
AcDbEntity
  8
0
  6
Continuous
 62
               6
100
AcDbLine
 10
473.66083143869321
 20
324.6104031525619
 30
0.0
 11
470.89583143869334
 21
329.39952363548986
 31
0.0
  0
LINE
  5
124
100
AcDbEntity
  8
0
  6
Continuous
 62
               7
100
AcDbLine
 10
497.92583143869376
 20
346.89952363549372
 30
0.0
 11
494.42583143869376
 21
346.89952363549372
 31
0.0
  0
LINE
  5
125
100
AcDbEntity
  8
0
  6
Continuous
 62
               7
100
AcDbLine
 10
499.42582994830116
 20
256.89950189694827
 30
0.0
 11
492.13293821988043
 21
256.89952363549259
 31
0.0
  0
LINE
  5
126
100
AcDbEntity
  8
0
  6
Continuous
 62
               7
100
AcDbLine
 10
516.92583143869422
 20
293.8995236354927
 30
0.0
 11
516.92583143869422
 21
332.89952363549349
 31
0.0
  0
LINE
  5
127
100
AcDbEntity
  8
0
  6
Continuous
 62
               7
100
AcDbLine
 10
494.42583143869376
 20
334.89952363549349
 30
0.0
 11
514.92583143869422
 21
334.89952363549349
 31
0.0
  0
LINE
  5
128
100
AcDbEntity
  8
0
  6
Continuous
 62
               7
100
AcDbLine
 10
479.42583143869376
 20
291.89952363549133
 30
0.0
 11
483.42583143869376
 21
291.89952363549133
 31
0.0
  0
LINE
  5
129
100
AcDbEntity
  8
0
  6
Continuous
 62
               7
100
AcDbLine
 10
493.92583143869376
 20
335.39952363549349
 30
0.0
 11
493.92583143869376
 21
346.39952363549372
 31
0.0
  0
LINE
  5
12A
100
AcDbEntity
  8
0
  6
Continuous
 62
               7
100
AcDbLine
 10
478.92583143869376
 20
270.10663041667937
 30
0.0
 11
478.92583143869376
 21
291.3995236354927
 31
0.0
  0
LINE
  5
12B
100
AcDbEntity
  8
0
  6
Continuous
 62
               7
100
AcDbLine
 10
479.07227804810043
 20
269.75307702608603
 30
0.0
 11
491.7793848292871
 21
257.04597024489937
 31
0.0
  0
LINE
  5
12C
100
AcDbEntity
  8
0
  6
Continuous
 62
               7
100
AcDbLine
 10
483.92583143869376
 20
290.3995236354927
 30
0.0
 11
483.92583143869376
 21
291.3995236354927
 31
0.0
  0
LINE
  5
12D
100
AcDbEntity
  8
0
  6
Continuous
 62
               7
100
AcDbLine
 10
493.92583143869376
 20
269.89952363549281
 30
0.0
 11
486.75425856343998
 21
269.89952363549281
 31
0.0
  0
LINE
  5
12E
100
AcDbEntity
  8
0
  6
Continuous
 62
               7
100
AcDbLine
 10
482.42583143869376
 20
289.8995236354927
 30
0.0
 11
483.42583143869376
 21
289.8995236354927
 31
0.0
  0
LINE
  5
12F
100
AcDbEntity
  8
0
  6
Continuous
 62
               7
100
AcDbLine
 10
514.92583143869422
 20
291.8995236354927
 30
0.0
 11
497.92583143869376
 21
291.8995236354927
 31
0.0
  0
LINE
  5
130
100
AcDbEntity
  8
0
  6
Continuous
 62
               7
100
AcDbLine
 10
495.92583143869376
 20
271.89952363549281
 30
0.0
 11
495.92583143869376
 21
289.8995236354927
 31
0.0
  0
LINE
  5
131
100
AcDbEntity
  8
0
  6
Continuous
 62
               7
100
AcDbLine
 10
481.92583143869376
 20
289.3995236354927
 30
0.0
 11
481.92583143869376
 21
274.72795076023903
 31
0.0
  0
LINE
  5
132
100
AcDbEntity
  8
0
  6
Continuous
 62
               7
100
AcDbLine
 10
485.34004500106687
 20
270.48531007311971
 30
0.0
 11
482.51161787632066
 21
273.31373719786581
 31
0.0
  0
LINE
  5
133
100
AcDbEntity
  8
0
  6
Continuous
 62
               7
100
AcDbLine
 10
499.92583143869376
 20
257.39950189694599
 30
0.0
 11
499.92583143869376
 21
259.39952363549259
 31
0.0
  0
LINE
  5
134
100
AcDbEntity
  8
0
  6
Continuous
 62
               7
100
AcDbLine
 10
507.42583143869376
 20
259.89952363549259
 30
0.0
 11
500.42583143869376
 21
259.89952363549259
 31
0.0
  0
LINE
  5
135
100
AcDbEntity
  8
0
  6
Continuous
 62
               7
100
AcDbLine
 10
507.92583143869376
 20
267.8995236354927
 30
0.0
 11
507.92583143869376
 21
260.39952363549259
 31
0.0
  0
LINE
  5
136
100
AcDbEntity
  8
0
  6
Continuous
 62
               7
100
AcDbLine
 10
500.42583143869376
 20
287.3995236354927
 30
0.0
 11
500.42583143869376
 21
268.8995236354927
 31
0.0
  0
LINE
  5
137
100
AcDbEntity
  8
0
  6
Continuous
 62
               7
100
AcDbLine
 10
498.42583143869376
 20
339.39952363549361
 30
0.0
 11
498.42583143869376
 21
346.39952363549372
 31
0.0
  0
LINE
  5
138
100
AcDbEntity
  8
0
  6
Continuous
 62
               7
100
AcDbLine
 10
501.42583143869376
 20
339.39952363549361
 30
0.0
 11
501.42583143869376
 21
346.39952363549372
 31
0.0
  0
LINE
  5
139
100
AcDbEntity
  8
0
  6
Continuous
 62
               7
100
AcDbLine
 10
500.92583143869376
 20
338.89952363549361
 30
0.0
 11
498.92583143869376
 21
338.89952363549361
 31
0.0
  0
LINE
  5
13A
100
AcDbEntity
  8
0
  6
Continuous
 62
               7
100
AcDbLine
 10
501.92583143869376
 20
346.89952363549372
 30
0.0
 11
535.92583143869513
 21
346.89952363549372
 31
0.0
  0
LINE
  5
13B
100
AcDbEntity
  8
0
  6
Continuous
 62
               7
100
AcDbLine
 10
539.9258314386949
 20
346.89952363549361
 30
0.0
 11
543.42583143869513
 21
346.89952363549361
 31
0.0
  0
LINE
  5
13C
100
AcDbEntity
  8
0
  6
Continuous
 62
               7
100
AcDbLine
 10
545.71872465750846
 20
256.89952363549259
 30
0.0
 11
538.4258314386949
 21
256.89952363549259
 31
0.0
  0
LINE
  5
13D
100
AcDbEntity
  8
0
  6
Continuous
 62
               7
100
AcDbLine
 10
520.92583143869444
 20
293.8995236354927
 30
0.0
 11
520.92583143869444
 21
332.89952363549338
 31
0.0
  0
LINE
  5
13E
100
AcDbEntity
  8
0
  6
Continuous
 62
               7
100
AcDbLine
 10
543.42583143869513
 20
334.89952363549349
 30
0.0
 11
522.92583143869444
 21
334.89952363549349
 31
0.0
  0
LINE
  5
13F
100
AcDbEntity
  8
0
  6
Continuous
 62
               7
100
AcDbLine
 10
558.42583143869513
 20
291.8995236354927
 30
0.0
 11
554.42583143869513
 21
291.8995236354927
 31
0.0
  0
LINE
  5
140
100
AcDbEntity
  8
0
  6
Continuous
 62
               7
100
AcDbLine
 10
543.92583143869513
 20
335.39952363549349
 30
0.0
 11
543.92583143869513
 21
346.39952363549361
 31
0.0
  0
LINE
  5
141
100
AcDbEntity
  8
0
  6
Continuous
 62
               7
100
AcDbLine
 10
558.92583143869513
 20
270.10663041667937
 30
0.0
 11
558.92583143869513
 21
291.3995236354927
 31
0.0
  0
LINE
  5
142
100
AcDbEntity
  8
0
  6
Continuous
 62
               7
100
AcDbLine
 10
546.07227804810179
 20
257.04597024489937
 30
0.0
 11
558.77938482928823
 21
269.75307702608603
 31
0.0
  0
LINE
  5
143
100
AcDbEntity
  8
0
  6
Continuous
 62
               7
100
AcDbLine
 10
553.92583143869513
 20
290.3995236354927
 30
0.0
 11
553.92583143869513
 21
291.3995236354927
 31
0.0
  0
LINE
  5
144
100
AcDbEntity
  8
0
  6
Continuous
 62
               7
100
AcDbLine
 10
543.92583143869513
 20
269.8995236354927
 30
0.0
 11
551.09740431394891
 21
269.8995236354927
 31
0.0
  0
LINE
  5
145
100
AcDbEntity
  8
0
  6
Continuous
 62
               7
100
AcDbLine
 10
555.42583143869513
 20
289.8995236354927
 30
0.0
 11
554.42583143869513
 21
289.8995236354927
 31
0.0
  0
LINE
  5
146
100
AcDbEntity
  8
0
  6
Continuous
 62
               7
100
AcDbLine
 10
522.92583143869444
 20
291.8995236354927
 30
0.0
 11
539.9258314386949
 21
291.8995236354927
 31
0.0
  0
LINE
  5
147
100
AcDbEntity
  8
0
  6
Continuous
 62
               7
100
AcDbLine
 10
541.92583143869513
 20
271.8995236354927
 30
0.0
 11
541.9258314386949
 21
289.8995236354927
 31
0.0
  0
LINE
  5
148
100
AcDbEntity
  8
0
  6
Continuous
 62
               7
100
AcDbLine
 10
555.92583143869513
 20
289.3995236354927
 30
0.0
 11
555.92583143869513
 21
274.72795076023891
 31
0.0
  0
LINE
  5
149
100
AcDbEntity
  8
0
  6
Continuous
 62
               7
100
AcDbLine
 10
552.51161787632202
 20
270.48531007311971
 30
0.0
 11
555.34004500106823
 21
273.31373719786581
 31
0.0
  0
LINE
  5
14A
100
AcDbEntity
  8
0
  6
Continuous
 62
               7
100
AcDbLine
 10
537.9258314386949
 20
259.39952363549259
 30
0.0
 11
537.9258314386949
 21
257.39952363549259
 31
0.0
  0
LINE
  5
14B
100
AcDbEntity
  8
0
  6
Continuous
 62
               7
100
AcDbLine
 10
530.42583143869467
 20
259.89952363549259
 30
0.0
 11
537.4258314386949
 21
259.89952363549259
 31
0.0
  0
LINE
  5
14C
100
AcDbEntity
  8
0
  6
Continuous
 62
               7
100
AcDbLine
 10
536.9258314386949
 20
268.3995236354927
 30
0.0
 11
530.42583143869467
 21
268.3995236354927
 31
0.0
  0
LINE
  5
14D
100
AcDbEntity
  8
0
  6
Continuous
 62
               7
100
AcDbLine
 10
529.92583143869467
 20
267.8995236354927
 30
0.0
 11
529.92583143869467
 21
260.39952363549259
 31
0.0
  0
LINE
  5
14E
100
AcDbEntity
  8
0
  6
Continuous
 62
               7
100
AcDbLine
 10
537.4258314386949
 20
287.3995236354927
 30
0.0
 11
537.4258314386949
 21
268.8995236354927
 31
0.0
  0
LINE
  5
14F
100
AcDbEntity
  8
0
  6
Continuous
 62
               7
100
AcDbLine
 10
539.4258314386949
 20
339.39952363549349
 30
0.0
 11
539.4258314386949
 21
346.39952363549361
 31
0.0
  0
LINE
  5
150
100
AcDbEntity
  8
0
  6
Continuous
 62
               7
100
AcDbLine
 10
536.4258314386949
 20
339.39952363549349
 30
0.0
 11
536.4258314386949
 21
346.39952363549361
 31
0.0
  0
LINE
  5
151
100
AcDbEntity
  8
0
  6
Continuous
 62
               7
100
AcDbLine
 10
536.9258314386949
 20
338.89952363549349
 30
0.0
 11
538.9258314386949
 21
338.89952363549349
 31
0.0
  0
LINE
  5
152
100
AcDbEntity
  8
0
  6
Continuous
 62
               7
100
AcDbLine
 10
508.92583143869376
 20
241.3995236354925
 30
0.0
 11
508.92583143869376
 21
231.39952363549239
 31
0.0
  0
LINE
  5
153
100
AcDbEntity
  8
0
  6
Continuous
 62
               7
100
AcDbLine
 10
528.92583143869467
 20
244.3995236354925
 30
0.0
 11
528.92583143869467
 21
229.39952363549233
 31
0.0
  0
LINE
  5
154
100
AcDbEntity
  8
0
  6
Continuous
 62
               7
100
AcDbLine
 10
508.92583143869376
 20
232.49701598665789
 30
0.0
 11
528.92583143869467
 21
233.5945083378235
 31
0.0
  0
LINE
  5
155
100
AcDbEntity
  8
0
  6
Continuous
 62
               7
100
AcDbLine
 10
508.92583143869376
 20
233.5945083378235
 30
0.0
 11
528.92583143869467
 21
234.69200068898905
 31
0.0
  0
LINE
  5
156
100
AcDbEntity
  8
0
  6
Continuous
 62
               7
100
AcDbLine
 10
508.92583143869376
 20
234.69200068898911
 30
0.0
 11
528.92583143869444
 21
235.78949304015461
 31
0.0
  0
LINE
  5
157
100
AcDbEntity
  8
0
  6
Continuous
 62
               7
100
AcDbLine
 10
508.92583143869376
 20
235.78949304015467
 30
0.0
 11
528.92583143869467
 21
236.88698539132017
 31
0.0
  0
LINE
  5
158
100
AcDbEntity
  8
0
  6
Continuous
 62
               7
100
AcDbLine
 10
508.92583143869376
 20
236.88694356279828
 30
0.0
 11
528.92583143869467
 21
237.98447774248572
 31
0.0
  0
LINE
  5
159
100
AcDbEntity
  8
0
  6
Continuous
 62
               7
100
AcDbLine
 10
508.92583143869376
 20
237.98447774248578
 30
0.0
 11
528.92583143869467
 21
239.08197009365128
 31
0.0
  0
LINE
  5
15A
100
AcDbEntity
  8
0
  6
Continuous
 62
               7
100
AcDbLine
 10
508.92583143869376
 20
239.08197009365134
 30
0.0
 11
528.92583143869467
 21
240.17946244481683
 31
0.0
  0
LINE
  5
15B
100
AcDbEntity
  8
0
  6
Continuous
 62
               7
100
AcDbLine
 10
508.92583143869376
 20
240.17946244481683
 30
0.0
 11
528.92583143869467
 21
241.27695479598239
 31
0.0
  0
LINE
  5
15C
100
AcDbEntity
  8
0
  6
Continuous
 62
               7
100
AcDbLine
 10
508.92583143869376
 20
241.2769547959825
 30
0.0
 11
528.92583143869467
 21
242.37444714714749
 31
0.0
  0
LINE
  5
15D
100
AcDbEntity
  8
0
  6
Continuous
 62
               7
100
AcDbLine
 10
508.92583143869399
 20
244.3995236354925
 30
0.0
 11
508.92583143869399
 21
229.39952363549233
 31
0.0
  0
LINE
  5
15E
100
AcDbEntity
  8
0
  6
Continuous
 62
               7
100
AcDbLine
 10
502.16083143869389
 20
228.39952363549233
 30
0.0
 11
502.16083143869389
 21
216.8995236354921
 31
0.0
  0
LINE
  5
15F
100
AcDbEntity
  8
0
  6
Continuous
 62
               7
100
AcDbLine
 10
535.690831438695
 20
228.39952363549233
 30
0.0
 11
535.690831438695
 21
216.8995236354921
 31
0.0
  0
LINE
  5
160
100
AcDbEntity
  8
0
  6
Continuous
 62
               7
100
AcDbLine
 10
503.16083143869389
 20
229.39952363549233
 30
0.0
 11
534.690831438695
 21
229.39952363549233
 31
0.0
  0
LINE
  5
161
100
AcDbEntity
  8
0
  6
Continuous
 62
               7
100
AcDbLine
 10
534.690831438695
 20
229.39952363549233
 30
0.0
 11
535.690831438695
 21
228.39952363549233
 31
0.0
  0
LINE
  5
162
100
AcDbEntity
  8
0
  6
Continuous
 62
               7
100
AcDbLine
 10
502.16083143869389
 20
228.39952363549233
 30
0.0
 11
503.16083143869389
 21
229.39952363549233
 31
0.0
  0
LINE
  5
163
100
AcDbEntity
  8
0
  6
Continuous
 62
               7
100
AcDbLine
 10
508.98588367214768
 20
231.40266241981712
 30
0.0
 11
528.92583143869467
 21
232.49685942763833
 31
0.0
  0
LINE
  5
164
100
AcDbEntity
  8
0
  6
Continuous
 62
               7
100
AcDbLine
 10
508.92583143869376
 20
230.30171816628771
 30
0.0
 11
528.92583143869467
 21
231.39921051745321
 31
0.0
  0
LINE
  5
165
100
AcDbEntity
  8
0
  6
Continuous
 62
               7
100
AcDbLine
 10
512.48766727622285
 20
229.39952363549233
 30
0.0
 11
528.92583143869467
 21
230.30156160726816
 31
0.0
  0
LINE
  5
166
100
AcDbEntity
  8
0
  6
Continuous
 62
               7
100
AcDbLine
 10
502.16083143869389
 20
245.3995236354925
 30
0.0
 11
502.16083143869389
 21
256.89952363549259
 31
0.0
  0
LINE
  5
167
100
AcDbEntity
  8
0
  6
Continuous
 62
               7
100
AcDbLine
 10
535.690831438695
 20
245.3995236354925
 30
0.0
 11
535.690831438695
 21
256.89952363549259
 31
0.0
  0
LINE
  5
168
100
AcDbEntity
  8
0
  6
Continuous
 62
               7
100
AcDbLine
 10
503.16080214181886
 20
244.3995236354925
 30
0.0
 11
534.690831438695
 21
244.3995236354925
 31
0.0
  0
LINE
  5
169
100
AcDbEntity
  8
0
  6
Continuous
 62
               7
100
AcDbLine
 10
534.690831438695
 20
244.3995236354925
 30
0.0
 11
535.690831438695
 21
245.3995236354925
 31
0.0
  0
LINE
  5
16A
100
AcDbEntity
  8
0
  6
Continuous
 62
               7
100
AcDbLine
 10
502.16083143869389
 20
245.3995236354925
 30
0.0
 11
503.16083143869389
 21
244.3995236354925
 31
0.0
  0
LINE
  5
16B
100
AcDbEntity
  8
0
  6
Continuous
 62
               7
100
AcDbLine
 10
508.92583143869376
 20
242.37460370616768
 30
0.0
 11
528.92583143869467
 21
243.47209605733261
 31
0.0
  0
LINE
  5
16C
100
AcDbEntity
  8
0
  6
Continuous
 62
               7
100
AcDbLine
 10
508.92583143869399
 20
243.47225261635279
 30
0.0
 11
525.82382654828155
 21
244.3995236354925
 31
0.0
  0
LINE
  5
16D
100
AcDbEntity
  8
0
  6
Continuous
 62
               7
100
AcDbLine
 10
527.71043123059383
 20
216.8995236354921
 30
0.0
 11
527.71043123059383
 21
228.39952363549227
 31
0.0
  0
LINE
  5
16E
100
AcDbEntity
  8
0
  6
Continuous
 62
               7
100
AcDbLine
 10
510.39003559118612
 20
216.8995236354921
 30
0.0
 11
510.38993214988784
 21
228.39951464050884
 31
0.0
  0
LINE
  5
16F
100
AcDbEntity
  8
0
  6
Continuous
 62
               7
100
AcDbLine
 10
509.38992315490407
 20
229.39952363549233
 30
0.0
 11
510.3899231549043
 21
228.39952363549233
 31
0.0
  0
LINE
  5
170
100
AcDbEntity
  8
0
  6
Continuous
 62
               7
100
AcDbLine
 10
510.3899231549043
 20
228.39952363549233
 30
0.0
 11
511.3899231549043
 21
229.39952363549233
 31
0.0
  0
LINE
  5
171
100
AcDbEntity
  8
0
  6
Continuous
 62
               7
100
AcDbLine
 10
526.71043123059383
 20
229.39952363549227
 30
0.0
 11
527.71043123059383
 21
228.39952363549227
 31
0.0
  0
LINE
  5
172
100
AcDbEntity
  8
0
  6
Continuous
 62
               7
100
AcDbLine
 10
527.71043123059383
 20
228.39952363549233
 30
0.0
 11
528.71043123059383
 21
229.39952363549227
 31
0.0
  0
LINE
  5
173
100
AcDbEntity
  8
0
  6
Continuous
 62
               7
100
AcDbLine
 10
527.71043123059383
 20
245.3995236354925
 30
0.0
 11
527.71043123059383
 21
256.89952363549259
 31
0.0
  0
LINE
  5
174
100
AcDbEntity
  8
0
  6
Continuous
 62
               7
100
AcDbLine
 10
510.39003559118612
 20
245.3995236354925
 30
0.0
 11
510.38993214988784
 21
256.89951464050915
 31
0.0
  0
LINE
  5
175
100
AcDbEntity
  8
0
  6
Continuous
 62
               7
100
AcDbLine
 10
509.38992315490407
 20
244.3995236354925
 30
0.0
 11
510.3899231549043
 21
245.3995236354925
 31
0.0
  0
LINE
  5
176
100
AcDbEntity
  8
0
  6
Continuous
 62
               7
100
AcDbLine
 10
510.3899231549043
 20
245.3995236354925
 30
0.0
 11
511.3899231549043
 21
244.3995236354925
 31
0.0
  0
LINE
  5
177
100
AcDbEntity
  8
0
  6
Continuous
 62
               7
100
AcDbLine
 10
526.71043123059383
 20
244.3995236354925
 30
0.0
 11
527.71043123059383
 21
245.3995236354925
 31
0.0
  0
LINE
  5
178
100
AcDbEntity
  8
0
  6
Continuous
 62
               7
100
AcDbLine
 10
527.71043123059383
 20
245.3995236354925
 30
0.0
 11
528.71043123059383
 21
244.3995236354925
 31
0.0
  0
LINE
  5
179
100
AcDbEntity
  8
0
  6
Continuous
 62
               6
100
AcDbLine
 10
536.4258314386949
 20
259.89952363549259
 30
0.0
 11
501.42583143869376
 21
259.89952363549259
 31
0.0
  0
LINE
  5
17A
100
AcDbEntity
  8
0
  6
Continuous
 62
               7
100
AcDbLine
 10
502.16083143869366
 20
282.89952363549213
 30
0.0
 11
502.16083143869366
 21
271.39952363549213
 31
0.0
  0
LINE
  5
17B
100
AcDbEntity
  8
0
  6
Continuous
 62
               7
100
AcDbLine
 10
535.69083143869477
 20
282.89952363549213
 30
0.0
 11
535.69083143869477
 21
271.39952363549213
 31
0.0
  0
LINE
  5
17C
100
AcDbEntity
  8
0
  6
Continuous
 62
               7
100
AcDbLine
 10
503.16083143869366
 20
283.89952363549213
 30
0.0
 11
534.69083143869477
 21
283.89952363549213
 31
0.0
  0
LINE
  5
17D
100
AcDbEntity
  8
0
  6
Continuous
 62
               7
100
AcDbLine
 10
534.69083143869477
 20
283.89952363549213
 30
0.0
 11
535.69083143869477
 21
282.89952363549213
 31
0.0
  0
LINE
  5
17E
100
AcDbEntity
  8
0
  6
Continuous
 62
               7
100
AcDbLine
 10
502.16083143869366
 20
282.89952363549213
 30
0.0
 11
503.16083143869366
 21
283.89952363549213
 31
0.0
  0
LINE
  5
17F
100
AcDbEntity
  8
0
  6
Continuous
 62
               7
100
AcDbLine
 10
527.58608547653887
 20
271.39952363549213
 30
0.0
 11
527.58608547653887
 21
282.89952363549213
 31
0.0
  0
LINE
  5
180
100
AcDbEntity
  8
0
  6
Continuous
 62
               7
100
AcDbLine
 10
510.26568983713139
 20
271.39952363549213
 30
0.0
 11
510.26558639583288
 21
282.8995146405087
 31
0.0
  0
LINE
  5
181
100
AcDbEntity
  8
0
  6
Continuous
 62
               7
100
AcDbLine
 10
509.26557740084934
 20
283.89952363549213
 30
0.0
 11
510.26557740084934
 21
282.89952363549213
 31
0.0
  0
LINE
  5
182
100
AcDbEntity
  8
0
  6
Continuous
 62
               7
100
AcDbLine
 10
510.26557740084934
 20
282.89952363549213
 30
0.0
 11
511.26557740084957
 21
283.89952363549213
 31
0.0
  0
LINE
  5
183
100
AcDbEntity
  8
0
  6
Continuous
 62
               7
100
AcDbLine
 10
526.58608547653887
 20
283.89952363549213
 30
0.0
 11
527.58608547653887
 21
282.89952363549213
 31
0.0
  0
LINE
  5
184
100
AcDbEntity
  8
0
  6
Continuous
 62
               7
100
AcDbLine
 10
527.58608547653887
 20
282.89952363549213
 30
0.0
 11
528.58608547653887
 21
283.89952363549213
 31
0.0
  0
LINE
  5
185
100
AcDbEntity
  8
0
  6
Continuous
 62
               6
100
AcDbLine
 10
536.42583143869467
 20
268.39952363549213
 30
0.0
 11
501.42583143869376
 21
268.39952363549213
 31
0.0
  0
LINE
  5
186
100
AcDbEntity
  8
0
  6
Continuous
 62
               7
100
AcDbLine
 10
508.92583143869376
 20
268.3995236354927
 30
0.0
 11
508.92583143869376
 21
259.89952363549259
 31
0.0
  0
LINE
  5
187
100
AcDbEntity
  8
0
  6
Continuous
 62
               7
100
AcDbLine
 10
528.92583143869467
 20
268.3995236354927
 30
0.0
 11
528.92583143869467
 21
259.89952363549259
 31
0.0
  0
LINE
  5
188
100
AcDbEntity
  8
0
  6
Continuous
 62
               7
100
AcDbLine
 10
508.92583143869376
 20
260.86944826845848
 30
0.0
 11
528.92583143869467
 21
261.96695193056786
 31
0.0
  0
LINE
  5
189
100
AcDbEntity
  8
0
  6
Continuous
 62
               7
100
AcDbLine
 10
508.92583143869376
 20
261.96695193056786
 30
0.0
 11
528.92583143869467
 21
263.06444428173342
 31
0.0
  0
LINE
  5
18A
100
AcDbEntity
  8
0
  6
Continuous
 62
               7
100
AcDbLine
 10
508.92583143869376
 20
263.06444428173342
 30
0.0
 11
528.92583143869467
 21
264.16193663289886
 31
0.0
  0
LINE
  5
18B
100
AcDbEntity
  8
0
  6
Continuous
 62
               7
100
AcDbLine
 10
508.92583143869376
 20
264.16193663289897
 30
0.0
 11
528.92583143869467
 21
265.25942898406441
 31
0.0
  0
LINE
  5
18C
100
AcDbEntity
  8
0
  6
Continuous
 62
               7
100
AcDbLine
 10
508.92583143869376
 20
265.25938715554258
 30
0.0
 11
528.92583143869467
 21
266.35692133522997
 31
0.0
  0
LINE
  5
18D
100
AcDbEntity
  8
0
  6
Continuous
 62
               7
100
AcDbLine
 10
508.92583143869376
 20
266.35692133523008
 30
0.0
 11
528.92583143869467
 21
267.45441368639564
 31
0.0
  0
LINE
  5
18E
100
AcDbEntity
  8
0
  6
Continuous
 62
               7
100
AcDbLine
 10
511.25319100780382
 20
259.89952363549259
 30
0.0
 11
528.92583143869467
 21
260.86930302038269
 31
0.0
  0
LINE
  5
18F
100
AcDbEntity
  8
0
  6
Continuous
 62
               7
100
AcDbLine
 10
508.92583143869376
 20
267.45457024541514
 30
0.0
 11
526.14605878832424
 21
268.3995236354927
 31
0.0
  0
LINE
  5
190
100
AcDbEntity
  8
0
  6
Continuous
 62
               6
100
AcDbLine
 10
536.4258314386949
 20
256.89952363549259
 30
0.0
 11
501.42583143869376
 21
256.89952363549259
 31
0.0
  0
LINE
  5
191
100
AcDbEntity
  8
0
  6
Continuous
 62
               6
100
AcDbLine
 10
536.4258314386949
 20
256.89952363549259
 30
0.0
 11
536.4258314386949
 21
259.89952363549259
 31
0.0
  0
LINE
  5
192
100
AcDbEntity
  8
0
  6
Continuous
 62
               6
100
AcDbLine
 10
501.42583143869376
 20
256.89952363549259
 30
0.0
 11
501.42583143869376
 21
259.89952363549259
 31
0.0
  0
LINE
  5
193
100
AcDbEntity
  8
0
  6
Continuous
 62
               6
100
AcDbLine
 10
536.42583143869467
 20
271.39952363549213
 30
0.0
 11
501.42583143869376
 21
271.39952363549213
 31
0.0
  0
LINE
  5
194
100
AcDbEntity
  8
0
  6
Continuous
 62
               7
100
AcDbLine
 10
536.92583143869513
 20
287.8995236354927
 30
0.0
 11
500.92583143869376
 21
287.8995236354927
 31
0.0
  0
LINE
  5
195
100
AcDbEntity
  8
0
  6
Continuous
 62
               6
100
AcDbLine
 10
536.42583143869467
 20
268.39952363549213
 30
0.0
 11
536.42583143869467
 21
271.39952363549213
 31
0.0
  0
LINE
  5
196
100
AcDbEntity
  8
0
  6
Continuous
 62
               6
100
AcDbLine
 10
501.42583143869376
 20
268.39952363549213
 30
0.0
 11
501.42583143869376
 21
271.39952363549213
 31
0.0
  0
LINE
  5
197
100
AcDbEntity
  8
0
  6
Continuous
 62
               7
100
AcDbLine
 10
507.42583143869376
 20
268.3995236354927
 30
0.0
 11
500.92583143869376
 21
268.3995236354927
 31
0.0
  0
LINE
  5
198
100
AcDbEntity
  8
0
  6
Continuous
 62
               4
100
AcDbLine
 10
622.92583143869354
 20
404.89952363549111
 30
0.0
 11
622.92583143869354
 21
374.89952363549111
 31
0.0
  0
LINE
  5
199
100
AcDbEntity
  8
0
  6
Continuous
 62
               4
100
AcDbLine
 10
622.92583143869354
 20
374.89952363549111
 30
0.0
 11
621.92583143869354
 21
374.89952363549111
 31
0.0
  0
LINE
  5
19A
100
AcDbEntity
  8
0
  6
Continuous
 62
               4
100
AcDbLine
 10
619.92583143869354
 20
376.89952363549111
 30
0.0
 11
619.92583143869354
 21
397.89952363549111
 31
0.0
  0
LINE
  5
19B
100
AcDbEntity
  8
0
  6
Continuous
 62
               4
100
AcDbLine
 10
615.92583143869354
 20
401.89952363549111
 30
0.0
 11
594.92583143869354
 21
401.89952363549111
 31
0.0
  0
LINE
  5
19C
100
AcDbEntity
  8
0
  6
Continuous
 62
               4
100
AcDbLine
 10
592.92583143869354
 20
403.89952363549111
 30
0.0
 11
592.92583143869354
 21
404.89952363549111
 31
0.0
  0
LINE
  5
19D
100
AcDbEntity
  8
0
  6
Continuous
 62
               4
100
AcDbLine
 10
592.92583143869354
 20
404.89952363549111
 30
0.0
 11
622.92583143869354
 21
404.89952363549111
 31
0.0
  0
LINE
  5
19E
100
AcDbEntity
  8
0
  6
DASHDOT
 62
               4
100
AcDbLine
 10
518.92583143869354
 20
463.89952363549116
 30
0.0
 11
518.92583143869354
 21
133.00118899550739
 31
0.0
  0
LINE
  5
19F
100
AcDbEntity
  8
0
  6
Continuous
 62
               3
100
AcDbLine
 10
175.69116009360306
 20
365.98931849115399
 30
0.0
 11
175.69116009360306
 21
364.68931849115404
 31
0.0
  0
LINE
  5
1A0
100
AcDbEntity
  8
0
  6
DASHDOT
 62
               4
100
AcDbLine
 10
247.19116009360329
 20
336.52901537252967
 30
0.0
 11
247.19116009360329
 21
448.88520890211271
 31
0.0
  0
LINE
  5
1A1
100
AcDbEntity
  8
0
  6
DASHED
 62
               6
100
AcDbLine
 10
297.19116009360329
 20
362.98931849115399
 30
0.0
 11
297.19116009360329
 21
352.98931849115399
 31
0.0
  0
LINE
  5
1A2
100
AcDbEntity
  8
0
  6
DASHED
 62
               6
100
AcDbLine
 10
197.19116009360306
 20
362.98931849115399
 30
0.0
 11
197.19116009360306
 21
352.98931849115399
 31
0.0
  0
LINE
  5
1A3
100
AcDbEntity
  8
0
  6
Continuous
 62
               3
100
AcDbLine
 10
196.19116009360306
 20
362.88931849115403
 30
0.0
 11
196.19116009360306
 21
350.98931849115399
 31
0.0
  0
LINE
  5
1A4
100
AcDbEntity
  8
0
  6
Continuous
 62
               3
100
AcDbLine
 10
201.19116009360306
 20
353.98931849115399
 30
0.0
 11
247.19116009360329
 21
353.98931849115399
 31
0.0
  0
LINE
  5
1A5
100
AcDbEntity
  8
0
  6
Continuous
 62
               3
100
AcDbLine
 10
224.19116009360295
 20
355.48931849115399
 30
0.0
 11
245.19116009360329
 21
355.48931849115399
 31
0.0
  0
LINE
  5
1A6
100
AcDbEntity
  8
0
  6
Continuous
 62
               3
100
AcDbLine
 10
246.19116009360329
 20
356.48931849115399
 30
0.0
 11
246.19116009360329
 21
358.48931849115399
 31
0.0
  0
LINE
  5
1A7
100
AcDbEntity
  8
0
  6
Continuous
 62
               3
100
AcDbLine
 10
243.65278868699642
 20
358.48931849115399
 30
0.0
 11
246.19116009360329
 21
358.48931849115399
 31
0.0
  0
LINE
  5
1A8
100
AcDbEntity
  8
0
  6
Continuous
 62
               3
100
AcDbLine
 10
243.3786452224104
 20
358.91116003097005
 30
0.0
 11
247.19116009360329
 21
367.48931849115399
 31
0.0
  0
LINE
  5
1A9
100
AcDbEntity
  8
0
  6
Continuous
 62
               3
100
AcDbLine
 10
223.19116009360295
 20
356.48931849115399
 30
0.0
 11
223.19116009360295
 21
363.57538613972605
 31
0.0
  0
LINE
  5
1AA
100
AcDbEntity
  8
0
  6
Continuous
 62
               3
100
AcDbLine
 10
221.19116009360295
 20
356.48931849115399
 30
0.0
 11
221.19116009360295
 21
363.43553251583904
 31
0.0
  0
LINE
  5
1AB
100
AcDbEntity
  8
0
  6
Continuous
 62
               3
100
AcDbLine
 10
215.68994211873286
 20
365.05573367721234
 30
0.0
 11
235.69237806847337
 21
366.45444025428196
 31
0.0
  0
LINE
  5
1AC
100
AcDbEntity
  8
0
  6
Continuous
 62
               3
100
AcDbLine
 10
235.83189101596162
 20
364.45931215376231
 30
0.0
 11
223.19116009360295
 21
363.57538613972605
 31
0.0
  0
LINE
  5
1AD
100
AcDbEntity
  8
0
  6
Continuous
 62
               3
100
AcDbLine
 10
215.8294550662211
 20
363.06060557669269
 30
0.0
 11
221.19116009360295
 21
363.43553251583904
 31
0.0
  0
LINE
  5
1AE
100
AcDbEntity
  8
0
  6
Continuous
 62
               3
100
AcDbLine
 10
215.22603833047509
 20
364.5220734152104
 30
0.0
 11
215.29579480421916
 21
363.52450936495057
 31
0.0
  0
LINE
  5
1AF
100
AcDbEntity
  8
0
  6
Continuous
 62
               3
100
AcDbLine
 10
236.22603833047532
 20
365.99053646602414
 30
0.0
 11
236.29579480421938
 21
364.99297241576426
 31
0.0
  0
LINE
  5
1B0
100
AcDbEntity
  8
0
  6
Continuous
 62
               3
100
AcDbLine
 10
201.69116009360306
 20
355.48931849115399
 30
0.0
 11
220.19116009360295
 21
355.48931849115399
 31
0.0
  0
LINE
  5
1B1
100
AcDbEntity
  8
0
  6
Continuous
 62
               3
100
AcDbLine
 10
199.69116009360306
 20
365.48931849115399
 30
0.0
 11
199.69116009360306
 21
357.48931849115399
 31
0.0
  0
LINE
  5
1B2
100
AcDbEntity
  8
0
  6
Continuous
 62
               3
100
AcDbLine
 10
198.19116009360306
 20
356.98931849115399
 30
0.0
 11
198.19116009360306
 21
364.68931849115404
 31
0.0
  0
LINE
  5
1B3
100
AcDbEntity
  8
0
  6
Continuous
 62
               3
100
AcDbLine
 10
199.19116009360306
 20
365.98931849115399
 30
0.0
 11
175.69116009360306
 21
365.98931849115399
 31
0.0
  0
LINE
  5
1B4
100
AcDbEntity
  8
0
  6
Continuous
 62
               3
100
AcDbLine
 10
198.19116009360306
 20
364.68931849115404
 30
0.0
 11
175.69116009360306
 21
364.68931849115404
 31
0.0
  0
LINE
  5
1B5
100
AcDbEntity
  8
0
  6
Continuous
 62
               3
100
AcDbLine
 10
293.19116009360329
 20
353.98931849115399
 30
0.0
 11
247.19116009360329
 21
353.98931849115399
 31
0.0
  0
LINE
  5
1B6
100
AcDbEntity
  8
0
  6
Continuous
 62
               3
100
AcDbLine
 10
270.19116009360329
 20
355.48931849115399
 30
0.0
 11
249.19116009360329
 21
355.48931849115399
 31
0.0
  0
LINE
  5
1B7
100
AcDbEntity
  8
0
  6
Continuous
 62
               3
100
AcDbLine
 10
248.19116009360329
 20
356.48931849115399
 30
0.0
 11
248.19116009360329
 21
358.48931849115399
 31
0.0
  0
LINE
  5
1B8
100
AcDbEntity
  8
0
  6
Continuous
 62
               3
100
AcDbLine
 10
250.72953150021004
 20
358.48931849115399
 30
0.0
 11
248.19116009360329
 21
358.48931849115399
 31
0.0
  0
LINE
  5
1B9
100
AcDbEntity
  8
0
  6
Continuous
 62
               3
100
AcDbLine
 10
251.00367496479606
 20
358.91116003097005
 30
0.0
 11
247.19116009360329
 21
367.48931849115399
 31
0.0
  0
LINE
  5
1BA
100
AcDbEntity
  8
0
  6
Continuous
 62
               3
100
AcDbLine
 10
271.19116009360329
 20
356.48931849115399
 30
0.0
 11
271.19116009360329
 21
363.57538613972605
 31
0.0
  0
LINE
  5
1BB
100
AcDbEntity
  8
0
  6
Continuous
 62
               3
100
AcDbLine
 10
273.19116009360329
 20
356.48931849115399
 30
0.0
 11
273.19116009360329
 21
363.43553251583904
 31
0.0
  0
LINE
  5
1BC
100
AcDbEntity
  8
0
  6
Continuous
 62
               3
100
AcDbLine
 10
278.69237806847337
 20
365.05573367721234
 30
0.0
 11
258.6899421187332
 21
366.45444025428196
 31
0.0
  0
LINE
  5
1BD
100
AcDbEntity
  8
0
  6
Continuous
 62
               3
100
AcDbLine
 10
258.55042917124496
 20
364.45931215376231
 30
0.0
 11
271.19116009360329
 21
363.57538613972605
 31
0.0
  0
LINE
  5
1BE
100
AcDbEntity
  8
0
  6
Continuous
 62
               3
100
AcDbLine
 10
278.55286512098513
 20
363.06060557669269
 30
0.0
 11
273.19116009360329
 21
363.43553251583904
 31
0.0
  0
LINE
  5
1BF
100
AcDbEntity
  8
0
  6
Continuous
 62
               3
100
AcDbLine
 10
279.15628185673125
 20
364.5220734152104
 30
0.0
 11
279.08652538298708
 21
363.52450936495057
 31
0.0
  0
LINE
  5
1C0
100
AcDbEntity
  8
0
  6
Continuous
 62
               3
100
AcDbLine
 10
258.15628185673125
 20
365.99053646602414
 30
0.0
 11
258.08652538298708
 21
364.99297241576426
 31
0.0
  0
LINE
  5
1C1
100
AcDbEntity
  8
0
  6
Continuous
 62
               3
100
AcDbLine
 10
292.69116009360329
 20
355.48931849115399
 30
0.0
 11
274.19116009360329
 21
355.48931849115399
 31
0.0
  0
LINE
  5
1C2
100
AcDbEntity
  8
0
  6
Continuous
 62
               3
100
AcDbLine
 10
294.69116009360329
 20
365.48931849115399
 30
0.0
 11
294.69116009360329
 21
357.48931849115399
 31
0.0
  0
LINE
  5
1C3
100
AcDbEntity
  8
0
  6
Continuous
 62
               3
100
AcDbLine
 10
296.19116009360329
 20
356.98931849115399
 30
0.0
 11
296.19116009360329
 21
364.68931849115404
 31
0.0
  0
LINE
  5
1C4
100
AcDbEntity
  8
0
  6
Continuous
 62
               3
100
AcDbLine
 10
295.19116009360329
 20
365.98931849115399
 30
0.0
 11
318.69116009360329
 21
365.98931849115399
 31
0.0
  0
LINE
  5
1C5
100
AcDbEntity
  8
0
  6
Continuous
 62
               3
100
AcDbLine
 10
296.19116009360329
 20
364.68931849115404
 30
0.0
 11
318.69116009360329
 21
364.68931849115404
 31
0.0
  0
LINE
  5
1C6
100
AcDbEntity
  8
0
  6
Continuous
 62
               3
100
AcDbLine
 10
318.69116009360329
 20
365.98931849115399
 30
0.0
 11
318.69116009360329
 21
364.68931849115404
 31
0.0
  0
LINE
  5
1C7
100
AcDbEntity
  8
0
  6
Continuous
 62
               3
100
AcDbLine
 10
241.91923546566949
 20
356.53278255570643
 30
0.0
 11
245.69116009360329
 21
356.53278255570643
 31
0.0
  0
LINE
  5
1C8
100
AcDbEntity
  8
0
  6
Continuous
 62
               3
100
AcDbLine
 10
243.44234514104409
 20
368.33017695167052
 30
0.0
 11
240.93997504616237
 21
357.7353881597424
 31
0.0
  0
LINE
  5
1C9
100
AcDbEntity
  8
0
  6
Continuous
 62
               3
100
AcDbLine
 10
252.46308472153697
 20
356.53278255570643
 30
0.0
 11
248.69116009360329
 21
356.53278255570643
 31
0.0
  0
LINE
  5
1CA
100
AcDbEntity
  8
0
  6
Continuous
 62
               3
100
AcDbLine
 10
250.93997504616237
 20
368.33017695167052
 30
0.0
 11
253.44234514104409
 21
357.7353881597424
 31
0.0
  0
LINE
  5
1CB
100
AcDbEntity
  8
0
  6
DASHED
 62
               6
100
AcDbLine
 10
198.19116009360306
 20
351.98931849115399
 30
0.0
 11
247.19116009360329
 21
351.98931849115399
 31
0.0
  0
LINE
  5
1CC
100
AcDbEntity
  8
0
  6
DASHED
 62
               6
100
AcDbLine
 10
296.19116009360329
 20
351.98931849115399
 30
0.0
 11
247.19116009360329
 21
351.98931849115399
 31
0.0
  0
LINE
  5
1CD
100
AcDbEntity
  8
0
  6
Continuous
 62
               6
100
AcDbLine
 10
322.19116009360329
 20
350.33931849115402
 30
0.0
 11
247.19116009360329
 21
350.33931849115402
 31
0.0
  0
LINE
  5
1CE
100
AcDbEntity
  8
0
  6
Continuous
 62
               6
100
AcDbLine
 10
322.19116009360329
 20
348.73931849115399
 30
0.0
 11
322.19116009360329
 21
350.33931849115402
 31
0.0
  0
LINE
  5
1CF
100
AcDbEntity
  8
0
  6
Continuous
 62
               6
100
AcDbLine
 10
322.19116009360329
 20
348.73931849115399
 30
0.0
 11
247.19116009360329
 21
348.73931849115399
 31
0.0
  0
LINE
  5
1D0
100
AcDbEntity
  8
0
  6
Continuous
 62
               6
100
AcDbLine
 10
172.19116009360295
 20
350.33931849115402
 30
0.0
 11
247.19116009360329
 21
350.33931849115402
 31
0.0
  0
LINE
  5
1D1
100
AcDbEntity
  8
0
  6
Continuous
 62
               6
100
AcDbLine
 10
172.19116009360295
 20
348.73931849115399
 30
0.0
 11
172.19116009360295
 21
350.33931849115402
 31
0.0
  0
LINE
  5
1D2
100
AcDbEntity
  8
0
  6
Continuous
 62
               6
100
AcDbLine
 10
172.19116009360295
 20
348.73931849115399
 30
0.0
 11
247.19116009360329
 21
348.73931849115399
 31
0.0
  0
LINE
  5
1D3
100
AcDbEntity
  8
0
  6
Continuous
 62
               6
100
AcDbLine
 10
185.07047116106691
 20
348.73931849115399
 30
0.0
 11
183.74256554193067
 21
350.33931849115402
 31
0.0
  0
LINE
  5
1D4
100
AcDbEntity
  8
0
  6
Continuous
 62
               6
100
AcDbLine
 10
188.53457277620458
 20
348.73931849115399
 30
0.0
 11
187.20666715706847
 21
350.33931849115402
 31
0.0
  0
LINE
  5
1D5
100
AcDbEntity
  8
0
  6
Continuous
 62
               6
100
AcDbLine
 10
219.71148731244438
 20
348.73931849115399
 30
0.0
 11
218.38358169330826
 21
350.33931849115402
 31
0.0
  0
LINE
  5
1D6
100
AcDbEntity
  8
0
  6
Continuous
 62
               6
100
AcDbLine
 10
223.17558892758217
 20
348.73931849115399
 30
0.0
 11
221.84768330844605
 21
350.33931849115402
 31
0.0
  0
LINE
  5
1D7
100
AcDbEntity
  8
0
  6
Continuous
 62
               6
100
AcDbLine
 10
254.35250346382219
 20
348.73931849115399
 30
0.0
 11
253.02459784468607
 21
350.33931849115402
 31
0.0
  0
LINE
  5
1D8
100
AcDbEntity
  8
0
  6
Continuous
 62
               6
100
AcDbLine
 10
257.81660507895998
 20
348.73931849115399
 30
0.0
 11
256.48869945982386
 21
350.33931849115402
 31
0.0
  0
LINE
  5
1D9
100
AcDbEntity
  8
0
  6
Continuous
 62
               6
100
AcDbLine
 10
288.99351961519977
 20
348.73931849115399
 30
0.0
 11
287.66561399606366
 21
350.33931849115402
 31
0.0
  0
LINE
  5
1DA
100
AcDbEntity
  8
0
  6
Continuous
 62
               6
100
AcDbLine
 10
292.45762123033757
 20
348.73931849115399
 30
0.0
 11
291.12971561120145
 21
350.33931849115402
 31
0.0
  0
LINE
  5
1DB
100
AcDbEntity
  8
0
  6
Continuous
 62
               3
100
AcDbLine
 10
298.19116009360329
 20
362.99952363549153
 30
0.0
 11
298.19116009360329
 21
350.99952363549147
 31
0.0
  0
LINE
  5
1DC
100
AcDbEntity
  8
0
  6
DASHED
 62
               6
100
AcDbLine
 10
298.19116009360329
 20
363.98931849115399
 30
0.0
 11
588.92583143869354
 21
363.98931849115399
 31
0.0
  0
LINE
  5
1DD
100
AcDbEntity
  8
0
  6
Continuous
 62
               4
100
AcDbLine
 10
559.42583143869354
 20
367.75682587600471
 30
0.0
 11
589.42583143869354
 21
367.75682587600471
 31
0.0
  0
LINE
  5
1DE
100
AcDbEntity
  8
0
  6
Continuous
 62
               4
100
AcDbLine
 10
589.42583143869354
 20
367.75682587600471
 30
0.0
 11
589.42583143869354
 21
368.75682587600471
 31
0.0
  0
LINE
  5
1DF
100
AcDbEntity
  8
0
  6
Continuous
 62
               4
100
AcDbLine
 10
587.42583143869354
 20
370.75682587600471
 30
0.0
 11
566.42583143869354
 21
370.75682587600471
 31
0.0
  0
LINE
  5
1E0
100
AcDbEntity
  8
0
  6
Continuous
 62
               4
100
AcDbLine
 10
562.42583143869354
 20
374.75682587600471
 30
0.0
 11
562.42583143869354
 21
395.75682587600471
 31
0.0
  0
LINE
  5
1E1
100
AcDbEntity
  8
0
  6
Continuous
 62
               4
100
AcDbLine
 10
560.42583143869354
 20
397.75682587600471
 30
0.0
 11
559.42583143869354
 21
397.75682587600471
 31
0.0
  0
LINE
  5
1E2
100
AcDbEntity
  8
0
  6
Continuous
 62
               4
100
AcDbLine
 10
559.42583143869354
 20
397.75682587600471
 30
0.0
 11
559.42583143869354
 21
367.75682587600471
 31
0.0
  0
LINE
  5
1E3
100
AcDbEntity
  8
0
  6
Continuous
 62
               4
100
AcDbLine
 10
572.91068322853323
 20
370.71961256815376
 30
0.0
 11
580.94097964885384
 21
370.71961256815376
 31
0.0
  0
LINE
  5
1E4
100
AcDbEntity
  8
0
  6
Continuous
 62
               4
100
AcDbLine
 10
575.17583143869354
 20
368.45446435799357
 30
0.0
 11
575.17583143869354
 21
350.46961256815376
 31
0.0
  0
LINE
  5
1E5
100
AcDbEntity
  8
0
  6
Continuous
 62
               4
100
AcDbLine
 10
578.67583143869354
 20
368.45446435799357
 30
0.0
 11
578.67583143869354
 21
350.46961256815376
 31
0.0
  0
LINE
  5
1E6
100
AcDbEntity
  8
0
  6
Continuous
 62
               4
100
AcDbLine
 10
575.17583143869354
 20
368.45446435799357
 30
0.0
 11
572.91068322853323
 21
370.71961256815376
 31
0.0
  0
LINE
  5
1E7
100
AcDbEntity
  8
0
  6
Continuous
 62
               4
100
AcDbLine
 10
576.92583143869354
 20
348.71961256815376
 30
0.0
 11
575.17583143869354
 21
350.46961256815376
 31
0.0
  0
LINE
  5
1E8
100
AcDbEntity
  8
0
  6
Continuous
 62
               4
100
AcDbLine
 10
578.67583143869354
 20
368.45446435799357
 30
0.0
 11
580.94097964885384
 21
370.71961256815376
 31
0.0
  0
LINE
  5
1E9
100
AcDbEntity
  8
0
  6
Continuous
 62
               4
100
AcDbLine
 10
576.92583143869354
 20
348.71961256815376
 30
0.0
 11
578.67583143869354
 21
350.46961256815376
 31
0.0
  0
LINE
  5
1EA
100
AcDbEntity
  8
0
  6
Continuous
 62
               4
100
AcDbLine
 10
562.42583143869354
 20
384.64918942634296
 30
0.0
 11
644.86412096382935
 21
434.74169898958166
 31
0.0
  0
LINE
  5
1EB
100
AcDbEntity
  8
0
  6
Continuous
 62
               4
100
AcDbLine
 10
562.42583143869331
 20
384.6491894263429
 30
0.0
 11
569.18882663452348
 21
390.58736220769384
 31
0.0
  0
LINE
  5
1EC
100
AcDbEntity
  8
0
  6
Continuous
 62
               4
100
AcDbLine
 10
562.42583143869331
 20
384.6491894263429
 30
0.0
 11
570.81194282439571
 21
387.91616598374145
 31
0.0
  0
LINE
  5
1ED
100
AcDbEntity
  8
0
  6
Continuous
 62
               3
100
AcDbLine
 10
557.92583143869354
 20
386.89952363549099
 30
0.0
 11
557.92583143869354
 21
368.95682587600464
 31
0.0
  0
LINE
  5
1EE
100
AcDbEntity
  8
0
  6
Continuous
 62
               3
100
AcDbLine
 10
538.92583143869354
 20
386.89952363549111
 30
0.0
 11
557.92583143869354
 21
386.89952363549099
 31
0.0
  0
LINE
  5
1EF
100
AcDbEntity
  8
0
  6
Continuous
 62
               3
100
AcDbLine
 10
538.92583143869365
 20
406.89952363549105
 30
0.0
 11
538.92583143869354
 21
386.89952363549111
 31
0.0
  0
LINE
  5
1F0
100
AcDbEntity
  8
0
  6
Continuous
 62
               3
100
AcDbLine
 10
623.92583143869354
 20
406.89952363549105
 30
0.0
 11
538.92583143869365
 21
406.89952363549105
 31
0.0
  0
LINE
  5
1F1
100
AcDbEntity
  8
0
  6
Continuous
 62
               3
100
AcDbLine
 10
623.92583143869365
 20
215.39952363549111
 30
0.0
 11
623.92583143869354
 21
406.89952363549105
 31
0.0
  0
LINE
  5
1F2
100
AcDbEntity
  8
0
  6
Continuous
 62
               3
100
AcDbLine
 10
561.92583143869376
 20
215.39952363549108
 30
0.0
 11
623.92583143869365
 21
215.39952363549111
 31
0.0
  0
LINE
  5
1F3
100
AcDbEntity
  8
0
  6
Continuous
 62
               3
100
AcDbLine
 10
561.92583143869376
 20
215.39952363549108
 30
0.0
 11
561.92583143869376
 21
240.39952363549114
 31
0.0
  0
LINE
  5
1F4
100
AcDbEntity
  8
0
  6
Continuous
 62
               6
100
AcDbLine
 10
522.42583143869388
 20
294.35613853070203
 30
0.0
 11
522.42583143869376
 21
334.35613853070203
 31
0.0
  0
LINE
  5
1F5
100
AcDbEntity
  8
0
  6
Continuous
 62
               6
100
AcDbLine
 10
560.42583143869388
 20
294.35613853070203
 30
0.0
 11
522.42583143869388
 21
294.35613853070203
 31
0.0
  0
LINE
  5
1F6
100
AcDbEntity
  8
0
  6
Continuous
 62
               6
100
AcDbLine
 10
560.42583143869388
 20
294.35613853070203
 30
0.0
 11
560.42583143869376
 21
215.39952363549108
 31
0.0
  0
LINE
  5
1F7
100
AcDbEntity
  8
0
  6
Continuous
 62
               3
100
AcDbLine
 10
147.19116009360332
 20
346.8995236354919
 30
0.0
 11
490.72583143869349
 21
346.8995236354919
 31
0.0
  0
LINE
  5
1F8
100
AcDbEntity
  8
0
  6
Continuous
 62
               3
100
AcDbLine
 10
147.19116009360332
 20
291.89952363549111
 30
0.0
 11
490.72583143869349
 21
291.89952363549111
 31
0.0
  0
LINE
  5
1F9
100
AcDbEntity
  8
0
  6
Continuous
 62
               3
100
AcDbLine
 10
196.191160093603
 20
350.99952363549141
 30
0.0
 11
147.19116009360332
 21
350.99952363549141
 31
0.0
  0
LINE
  5
1FA
100
AcDbEntity
  8
0
  6
Continuous
 62
               3
100
AcDbLine
 10
298.19116009360329
 20
350.99952363549147
 30
0.0
 11
588.92583143869354
 21
350.99952363549147
 31
0.0
  0
LINE
  5
1FB
100
AcDbEntity
  8
0
  6
Continuous
 62
               3
100
AcDbLine
 10
196.191160093603
 20
362.99952363549153
 30
0.0
 11
147.19116009360332
 21
362.99952363549147
 31
0.0
  0
LINE
  5
1FC
100
AcDbEntity
  8
0
  6
Continuous
 62
               3
100
AcDbLine
 10
298.19116009360329
 20
362.99952363549158
 30
0.0
 11
588.92583143869354
 21
362.99952363549147
 31
0.0
  0
LINE
  5
1FD
100
AcDbEntity
  8
0
  6
DASHED
 62
               6
100
AcDbLine
 10
196.191160093603
 20
363.98931849115399
 30
0.0
 11
147.19116009360332
 21
363.98931849115394
 31
0.0
  0
LINE
  5
1FE
100
AcDbEntity
  8
0
  6
Continuous
 62
               2
100
AcDbLine
 10
237.19116009360323
 20
366.89955865700034
 30
0.0
 11
147.19116009360334
 21
366.89956761811823
 31
0.0
  0
LINE
  5
1FF
100
AcDbEntity
  8
0
  6
Continuous
 62
               2
100
AcDbLine
 10
257.19116009360323
 20
366.89955666564083
 30
0.0
 11
588.92583143869354
 21
366.89952363549111
 31
0.0
  0
LINE
  5
200
100
AcDbEntity
  8
0
  6
Continuous
 62
               6
100
AcDbLine
 10
337.73148427240739
 20
350.99952363549147
 30
0.0
 11
349.73148427240739
 21
362.99952363549147
 31
0.0
  0
LINE
  5
201
100
AcDbEntity
  8
0
  6
Continuous
 62
               6
100
AcDbLine
 10
342.66041646054197
 20
362.99952363549147
 30
0.0
 11
330.66041646054197
 21
350.99952363549147
 31
0.0
  0
LINE
  5
202
100
AcDbEntity
  8
0
  6
Continuous
 62
               6
100
AcDbLine
 10
335.58934864867643
 20
362.99952363549147
 30
0.0
 11
323.58934864867643
 21
350.99952363549147
 31
0.0
  0
LINE
  5
203
100
AcDbEntity
  8
0
  6
Continuous
 62
               6
100
AcDbLine
 10
316.51828083681096
 20
350.99952363549147
 30
0.0
 11
328.51828083681096
 21
362.99952363549147
 31
0.0
  0
LINE
  5
204
100
AcDbEntity
  8
0
  6
Continuous
 62
               6
100
AcDbLine
 10
321.4472130249456
 20
362.99952363549147
 30
0.0
 11
309.4472130249456
 21
350.99952363549147
 31
0.0
  0
LINE
  5
205
100
AcDbEntity
  8
0
  6
Continuous
 62
               6
100
AcDbLine
 10
314.37614521308006
 20
362.99952363549147
 30
0.0
 11
302.37614521308006
 21
350.99952363549147
 31
0.0
  0
LINE
  5
206
100
AcDbEntity
  8
0
  6
Continuous
 62
               6
100
AcDbLine
 10
194.16799241136732
 20
362.99952363549147
 30
0.0
 11
182.16799241136732
 21
350.99952363549147
 31
0.0
  0
LINE
  5
207
100
AcDbEntity
  8
0
  6
Continuous
 62
               6
100
AcDbLine
 10
187.09692459950179
 20
362.99952363549147
 30
0.0
 11
175.09692459950179
 21
350.99952363549147
 31
0.0
  0
LINE
  5
208
100
AcDbEntity
  8
0
  6
Continuous
 62
               6
100
AcDbLine
 10
168.02585678763631
 20
350.99952363549147
 30
0.0
 11
180.02585678763631
 21
362.99952363549147
 31
0.0
  0
LINE
  5
209
100
AcDbEntity
  8
0
  6
Continuous
 62
               6
100
AcDbLine
 10
172.9547889757709
 20
362.99952363549147
 30
0.0
 11
160.9547889757709
 21
350.99952363549147
 31
0.0
  0
LINE
  5
20A
100
AcDbEntity
  8
0
  6
Continuous
 62
               6
100
AcDbLine
 10
165.88372116390536
 20
362.99952363549147
 30
0.0
 11
153.88372116390536
 21
350.99952363549147
 31
0.0
  0
LINE
  5
20B
100
AcDbEntity
  8
0
  6
Continuous
 62
               6
100
AcDbLine
 10
147.19116009360332
 20
358.44909818892029
 30
0.0
 11
151.7415855401745
 21
362.99952363549147
 31
0.0
  0
LINE
  5
20C
100
AcDbEntity
  8
0
  6
Continuous
 62
               6
100
AcDbLine
 10
147.19116009360332
 20
351.37803037705487
 30
0.0
 11
158.81265335203989
 21
362.99952363549147
 31
0.0
  0
LINE
  5
20D
100
AcDbEntity
  8
0
  6
Continuous
 62
               6
100
AcDbLine
 10
196.19116009360303
 20
357.95162350586185
 30
0.0
 11
189.23906022323266
 21
350.99952363549147
 31
0.0
  0
LINE
  5
20E
100
AcDbEntity
  8
0
  6
Continuous
 62
               6
100
AcDbLine
 10
298.19116009360329
 20
360.95667413974553
 30
0.0
 11
300.23400958934923
 21
362.99952363549147
 31
0.0
  0
LINE
  5
20F
100
AcDbEntity
  8
0
  6
Continuous
 62
               6
100
AcDbLine
 10
298.19116009360329
 20
353.88560632788017
 30
0.0
 11
307.30507740121459
 21
362.99952363549147
 31
0.0
  0
LINE
  5
210
100
AcDbEntity
  8
0
  6
Continuous
 62
               3
100
AcDbLine
 10
227.02420216232588
 20
369.53278255570649
 30
0.0
 11
222.3287747725023
 21
368.12415433875952
 31
0.0
  0
LINE
  5
211
100
AcDbEntity
  8
0
  6
Continuous
 62
               3
100
AcDbLine
 10
227.02420216232588
 20
369.53278255570649
 30
0.0
 11
242.46308472153697
 21
369.53278255570649
 31
0.0
  0
LINE
  5
212
100
AcDbEntity
  8
0
  6
Continuous
 62
               3
100
AcDbLine
 10
227.02420216232576
 20
370.03278255570649
 30
0.0
 11
222.19116009360329
 21
368.58286993508978
 31
0.0
  0
LINE
  5
213
100
AcDbEntity
  8
0
  6
Continuous
 62
               3
100
AcDbLine
 10
267.3581180248807
 20
369.53278255570649
 30
0.0
 11
272.05354541470427
 21
368.12415433875952
 31
0.0
  0
LINE
  5
214
100
AcDbEntity
  8
0
  6
Continuous
 62
               3
100
AcDbLine
 10
267.3581180248807
 20
369.53278255570649
 30
0.0
 11
251.9192354656696
 21
369.53278255570649
 31
0.0
  0
LINE
  5
215
100
AcDbEntity
  8
0
  6
Continuous
 62
               3
100
AcDbLine
 10
267.35811802488081
 20
370.03278255570649
 30
0.0
 11
272.19116009360329
 21
368.58286993508978
 31
0.0
  0
LINE
  5
216
100
AcDbEntity
  8
0
  6
Continuous
 62
               3
100
AcDbLine
 10
267.35811802488081
 20
370.03278255570649
 30
0.0
 11
227.02420216232576
 21
370.03278255570649
 31
0.0
  0
LINE
  5
217
100
AcDbEntity
  8
0
  6
Continuous
 62
               4
100
AcDbLine
 10
407.50601198778679
 20
506.8893119646055
 30
0.0
 11
223.17782455457416
 21
506.8893119646055
 31
0.0
  0
LINE
  5
218
100
AcDbEntity
  8
0
  6
Continuous
 62
               4
100
AcDbLine
 10
411.16280324747902
 20
490.8893119646055
 30
0.0
 11
223.17782455457416
 21
490.8893119646055
 31
0.0
  0
LINE
  5
219
100
AcDbEntity
  8
0
  6
Continuous
 62
               4
100
AcDbLine
 10
414.81959450717125
 20
474.8893119646055
 30
0.0
 11
223.17782455457416
 21
474.8893119646055
 31
0.0
  0
LINE
  5
21A
100
AcDbEntity
  8
0
  6
Continuous
 62
               4
100
AcDbLine
 10
407.50601198778685
 20
506.88931196460538
 30
0.0
 11
441.76324123022601
 21
356.99952363549141
 31
0.0
  0
LINE
  5
21B
100
AcDbEntity
  8
0
  6
Continuous
 62
               7
100
AcDbLine
 10
147.19116009360332
 20
152.89952363549125
 30
0.0
 11
435.42583143869354
 21
152.89952363549122
 31
0.0
  0
LINE
  5
21C
100
AcDbEntity
  8
0
  6
Continuous
 62
               7
100
AcDbLine
 10
147.19116009360332
 20
202.89952363549131
 30
0.0
 11
435.42583143869354
 21
202.89952363549131
 31
0.0
  0
CIRCLE
  5
21D
100
AcDbEntity
  8
0
  6
Continuous
 62
               4
100
AcDbCircle
 10
623.92583143869354
 20
179.39952363549108
 30
0.0
 40
1.5
  0
CIRCLE
  5
21E
100
AcDbEntity
  8
0
  6
Continuous
 62
               4
100
AcDbCircle
 10
558.92583143869513
 20
179.39952363549108
 30
0.0
 40
1.5
  0
CIRCLE
  5
21F
100
AcDbEntity
  8
0
  6
Continuous
 62
               4
100
AcDbCircle
 10
558.92583143869513
 20
179.39952363549108
 30
0.0
 40
1.5
  0
CIRCLE
  5
220
100
AcDbEntity
  8
0
  6
Continuous
 62
               4
100
AcDbCircle
 10
518.92583143869354
 20
179.39952363549108
 30
0.0
 40
1.5
  0
CIRCLE
  5
221
100
AcDbEntity
  8
0
  6
Continuous
 62
               4
100
AcDbCircle
 10
588.92583143869376
 20
240.39952363549114
 30
0.0
 40
1.5
  0
CIRCLE
  5
222
100
AcDbEntity
  8
0
  6
Continuous
 62
               4
100
AcDbCircle
 10
588.92583143869376
 20
215.39952363549108
 30
0.0
 40
1.5
  0
CIRCLE
  5
223
100
AcDbEntity
  8
0
  6
Continuous
 62
               4
100
AcDbCircle
 10
352.92583143869388
 20
291.8995236354927
 30
0.0
 40
1.5
  0
CIRCLE
  5
224
100
AcDbEntity
  8
0
  6
Continuous
 62
               4
100
AcDbCircle
 10
352.92583143869388
 20
256.89952363549259
 30
0.0
 40
1.5
  0
CIRCLE
  5
225
100
AcDbEntity
  8
0
  6
Continuous
 62
               4
100
AcDbCircle
 10
352.92583143869388
 20
256.89952363549259
 30
0.0
 40
1.5
  0
CIRCLE
  5
226
100
AcDbEntity
  8
0
  6
Continuous
 62
               4
100
AcDbCircle
 10
352.92583143869388
 20
216.89952363549125
 30
0.0
 40
1.5
  0
CIRCLE
  5
227
100
AcDbEntity
  8
0
  6
Continuous
 62
               4
100
AcDbCircle
 10
334.92583143869388
 20
216.89952363549125
 30
0.0
 40
1.5
  0
CIRCLE
  5
228
100
AcDbEntity
  8
0
  6
Continuous
 62
               4
100
AcDbCircle
 10
334.92583143869388
 20
291.89952363549111
 30
0.0
 40
1.5
  0
CIRCLE
  5
229
100
AcDbEntity
  8
0
  6
Continuous
 62
               4
100
AcDbCircle
 10
334.92583143869388
 20
291.89952363549111
 30
0.0
 40
1.5
  0
CIRCLE
  5
22A
100
AcDbEntity
  8
0
  6
Continuous
 62
               4
100
AcDbCircle
 10
334.92583143869388
 20
366.89956122854051
 30
0.0
 40
1.5
  0
CIRCLE
  5
22B
100
AcDbEntity
  8
0
  6
Continuous
 62
               4
100
AcDbCircle
 10
695.92583143869354
 20
215.39952363549108
 30
0.0
 40
1.5
  0
CIRCLE
  5
22C
100
AcDbEntity
  8
0
  6
Continuous
 62
               4
100
AcDbCircle
 10
695.92583143869354
 20
406.89952363549105
 30
0.0
 40
1.5
  0
CIRCLE
  5
22D
100
AcDbEntity
  8
0
  6
Continuous
 62
               4
100
AcDbCircle
 10
623.92583143869354
 20
442.89952363549116
 30
0.0
 40
1.5
  0
CIRCLE
  5
22E
100
AcDbEntity
  8
0
  6
Continuous
 62
               4
100
AcDbCircle
 10
538.92583143869354
 20
442.89952363549116
 30
0.0
 40
1.5
  0
CIRCLE
  5
22F
100
AcDbEntity
  8
0
  6
Continuous
 62
               4
100
AcDbCircle
 10
538.92583143869354
 20
442.89952363549116
 30
0.0
 40
1.5
  0
CIRCLE
  5
230
100
AcDbEntity
  8
0
  6
Continuous
 62
               4
100
AcDbCircle
 10
518.92583143869354
 20
442.89952363549116
 30
0.0
 40
1.5
  0
CIRCLE
  5
231
100
AcDbEntity
  8
0
  6
Continuous
 62
               4
100
AcDbCircle
 10
518.92583143869354
 20
460.89952363549116
 30
0.0
 40
1.5
  0
CIRCLE
  5
232
100
AcDbEntity
  8
0
  6
Continuous
 62
               4
100
AcDbCircle
 10
623.92583143869354
 20
460.89952363549116
 30
0.0
 40
1.5
  0
CIRCLE
  5
233
100
AcDbEntity
  8
0
  6
Continuous
 62
               4
100
AcDbCircle
 10
502.92583143869365
 20
406.89952363549105
 30
0.0
 40
1.5
  0
CIRCLE
  5
234
100
AcDbEntity
  8
0
  6
Continuous
 62
               4
100
AcDbCircle
 10
502.92583143869365
 20
386.89952363549111
 30
0.0
 40
1.5
  0
CIRCLE
  5
235
100
AcDbEntity
  8
0
  6
Continuous
 62
               4
100
AcDbCircle
 10
502.92583143869365
 20
386.89952363549111
 30
0.0
 40
1.5
  0
CIRCLE
  5
236
100
AcDbEntity
  8
0
  6
Continuous
 62
               4
100
AcDbCircle
 10
502.92583143869365
 20
366.89953218872512
 30
0.0
 40
1.5
  0
CIRCLE
  5
237
100
AcDbEntity
  8
0
  6
Continuous
 62
               4
100
AcDbCircle
 10
484.92583143869354
 20
366.89953312387115
 30
0.0
 40
1.5
  0
CIRCLE
  5
238
100
AcDbEntity
  8
0
  6
Continuous
 62
               4
100
AcDbCircle
 10
484.92583143869354
 20
406.89952363549105
 30
0.0
 40
1.5
  0
CIRCLE
  5
239
100
AcDbEntity
  8
0
  6
Continuous
 62
               4
100
AcDbCircle
 10
247.19116009360329
 20
397.0327825557066
 30
0.0
 40
1.5
  0
CIRCLE
  5
23A
100
AcDbEntity
  8
0
  6
Continuous
 62
               4
100
AcDbCircle
 10
257.19116009360323
 20
397.0327825557066
 30
0.0
 40
1.5
  0
CIRCLE
  5
23B
100
AcDbEntity
  8
0
  6
Continuous
 62
               4
100
AcDbCircle
 10
247.19116009360329
 20
397.0327825557066
 30
0.0
 40
1.5
  0
CIRCLE
  5
23C
100
AcDbEntity
  8
0
  6
Continuous
 62
               4
100
AcDbCircle
 10
237.19116009360323
 20
397.0327825557066
 30
0.0
 40
1.5
  0
CIRCLE
  5
23D
100
AcDbEntity
  8
0
  6
Continuous
 62
               4
100
AcDbCircle
 10
222.19116009360329
 20
415.03278255570649
 30
0.0
 40
1.5
  0
CIRCLE
  5
23E
100
AcDbEntity
  8
0
  6
Continuous
 62
               4
100
AcDbCircle
 10
272.19116009360323
 20
415.03278255570649
 30
0.0
 40
1.5
  0
CIRCLE
  5
23F
100
AcDbEntity
  8
0
  6
Continuous
 62
               6
100
AcDbCircle
 10
441.42583143869331
 20
329.39952363548986
 30
0.0
 40
4.7891204829279488
  0
CIRCLE
  5
240
100
AcDbEntity
  8
0
  6
Continuous
 62
               6
100
AcDbCircle
 10
476.42583143869331
 20
329.39952363548986
 30
0.0
 40
4.7891204829279488
  0
CIRCLE
  5
241
100
AcDbEntity
  8
0
  6
Continuous
 62
               6
100
AcDbCircle
 10
441.42583143869331
 20
329.39952363548986
 30
0.0
 40
3.0
  0
CIRCLE
  5
242
100
AcDbEntity
  8
0
  6
Continuous
 62
               6
100
AcDbCircle
 10
476.42583143869331
 20
329.39952363548986
 30
0.0
 40
3.0
  0
CIRCLE
  5
243
100
AcDbEntity
  8
0
  6
Continuous
 62
               6
100
AcDbCircle
 10
596.4258314386949
 20
329.39952363548986
 30
0.0
 40
3.0
  0
CIRCLE
  5
244
100
AcDbEntity
  8
0
  6
Continuous
 62
               6
100
AcDbCircle
 10
561.42583143869376
 20
329.39952363548986
 30
0.0
 40
3.0
  0
CIRCLE
  5
245
100
AcDbEntity
  8
0
  6
Continuous
 62
               4
100
AcDbCircle
 10
439.5005982379401
 20
366.89953851345911
 30
0.0
 40
1.5
  0
CIRCLE
  5
246
100
AcDbEntity
  8
0
  6
Continuous
 62
               4
100
AcDbCircle
 10
439.82057087351461
 20
365.49952363549147
 30
0.0
 40
1.5
  0
CIRCLE
  5
247
100
AcDbEntity
  8
0
  6
Continuous
 62
               4
100
AcDbCircle
 10
441.7632412302263
 20
356.99952363549147
 30
0.0
 40
1.5
  0
ARC
  5
248
100
AcDbEntity
  8
0
  6
Continuous
 62
               6
100
AcDbCircle
 10
518.41234278634727
 20
376.89952363549111
 30
0.0
 40
24.634471199912603
100
AcDbArc
 50
336.05025256998141
 51
23.949747430018604
  0
ARC
  5
249
100
AcDbEntity
  8
0
  6
Continuous
 62
               7
100
AcDbCircle
 10
561.13285126537983
 20
229.60416021194609
 30
0.0
 40
2.2078275756135288
100
AcDbArc
 50
123.14092762816746
 51
179.99897944928469
  0
ARC
  5
24A
100
AcDbEntity
  8
0
  6
Continuous
 62
               7
100
AcDbCircle
 10
562.92583143869376
 20
230.95283696617494
 30
0.0
 40
0.5
100
AcDbArc
 50
89.999999999999957
 51
180.0
  0
ARC
  5
24B
100
AcDbEntity
  8
0
  6
Continuous
 62
               7
100
AcDbCircle
 10
561.13285126537983
 20
227.30151372040385
 30
0.0
 40
2.2078275756135288
100
AcDbArc
 50
180.00102055071528
 51
236.85907237183247
  0
ARC
  5
24C
100
AcDbEntity
  8
0
  6
Continuous
 62
               7
100
AcDbCircle
 10
562.92583143869376
 20
225.95283696617494
 30
0.0
 40
0.5
100
AcDbArc
 50
180.0
 51
269.99999999999994
  0
ARC
  5
24D
100
AcDbEntity
  8
0
  6
Continuous
 62
               7
100
AcDbCircle
 10
564.92583143869376
 20
230.95283696617494
 30
0.0
 40
0.5
100
AcDbArc
 50
0.0
 51
89.999999999999957
  0
ARC
  5
24E
100
AcDbEntity
  8
0
  6
Continuous
 62
               7
100
AcDbCircle
 10
564.92583143869376
 20
225.95283696617494
 30
0.0
 40
0.5
100
AcDbArc
 50
269.99999999999994
 51
0.0
  0
ARC
  5
24F
100
AcDbEntity
  8
0
  6
Continuous
 62
               7
100
AcDbCircle
 10
521.7188116120077
 20
316.47389652326871
 30
0.0
 40
2.2078275756135288
100
AcDbArc
 50
0.0010205507152674
 51
56.859072371832525
  0
ARC
  5
250
100
AcDbEntity
  8
0
  6
Continuous
 62
               7
100
AcDbCircle
 10
515.92583143869376
 20
317.8225732774975
 30
0.0
 40
0.5
100
AcDbArc
 50
0.0
 51
90.000000000000028
  0
ARC
  5
251
100
AcDbEntity
  8
0
  6
Continuous
 62
               7
100
AcDbCircle
 10
521.7188116120077
 20
314.1712500317264
 30
0.0
 40
2.2078275756135288
100
AcDbArc
 50
303.1409276281675
 51
359.99897944928466
  0
ARC
  5
252
100
AcDbEntity
  8
0
  6
Continuous
 62
               7
100
AcDbCircle
 10
515.92583143869376
 20
312.8225732774975
 30
0.0
 40
0.5
100
AcDbArc
 50
269.99999999999994
 51
0.0
  0
ARC
  5
253
100
AcDbEntity
  8
0
  6
Continuous
 62
               7
100
AcDbCircle
 10
513.92583143869376
 20
317.8225732774975
 30
0.0
 40
0.5
100
AcDbArc
 50
90.000000000000028
 51
180.0
  0
ARC
  5
254
100
AcDbEntity
  8
0
  6
Continuous
 62
               7
100
AcDbCircle
 10
513.92583143869376
 20
312.8225732774975
 30
0.0
 40
0.5
100
AcDbArc
 50
180.0
 51
269.99999999999994
  0
ARC
  5
255
100
AcDbEntity
  8
0
  6
Continuous
 62
               7
100
AcDbCircle
 10
477.99780920033197
 20
193.29163433098088
 30
0.0
 40
2.109117853093986
100
AcDbArc
 50
358.3693895571472
 51
90.002007033912165
  0
ARC
  5
256
100
AcDbEntity
  8
0
  6
Continuous
 62
               7
100
AcDbCircle
 10
477.99780920033197
 20
162.50741294000164
 30
0.0
 40
2.109117853093986
100
AcDbArc
 50
269.99799296608779
 51
1.6306104428527701
  0
ARC
  5
257
100
AcDbEntity
  8
0
  6
Continuous
 62
               7
100
AcDbCircle
 10
518.92583143869194
 20
177.89952363549125
 30
0.0
 40
42.5
100
AcDbArc
 50
113.41551361549438
 51
156.58448638450008
  0
ARC
  5
258
100
AcDbEntity
  8
0
  6
Continuous
 62
               7
100
AcDbCircle
 10
518.92583143869354
 20
177.89952363548966
 30
0.0
 40
42.5
100
AcDbArc
 50
203.41551361549435
 51
246.58448638450005
  0
ARC
  5
259
100
AcDbEntity
  8
0
  6
Continuous
 62
               7
100
AcDbCircle
 10
518.92583143869513
 20
177.89952363549125
 30
0.0
 40
42.5
100
AcDbArc
 50
293.41551361549432
 51
336.58448638450011
  0
ARC
  5
25A
100
AcDbEntity
  8
0
  6
Continuous
 62
               7
100
AcDbCircle
 10
518.92583143869354
 20
177.89952363549284
 30
0.0
 40
42.5
100
AcDbArc
 50
23.415513615494355
 51
66.58448638450011
  0
ARC
  5
25B
100
AcDbEntity
  8
0
  6
Continuous
 62
               7
100
AcDbCircle
 10
590.92583143869354
 20
346.89952363549179
 30
0.0
 40
1.0
100
AcDbArc
 50
0.0
 51
180.0
  0
ARC
  5
25C
100
AcDbEntity
  8
0
  6
Continuous
 62
               7
100
AcDbCircle
 10
592.92583143869354
 20
346.89952363549179
 30
0.0
 40
1.0
100
AcDbArc
 50
0.0
 51
180.0
  0
ARC
  5
25D
100
AcDbEntity
  8
0
  6
Continuous
 62
               7
100
AcDbCircle
 10
594.92583143869354
 20
346.89952363549179
 30
0.0
 40
1.0
100
AcDbArc
 50
0.0
 51
180.0
  0
ARC
  5
25E
100
AcDbEntity
  8
0
  6
Continuous
 62
               7
100
AcDbCircle
 10
596.92583143869354
 20
346.89952363549179
 30
0.0
 40
1.0
100
AcDbArc
 50
0.0
 51
180.0
  0
ARC
  5
25F
100
AcDbEntity
  8
0
  6
Continuous
 62
               7
100
AcDbCircle
 10
598.92583143869354
 20
346.89952363549179
 30
0.0
 40
1.0
100
AcDbArc
 50
0.0
 51
180.0
  0
ARC
  5
260
100
AcDbEntity
  8
0
  6
Continuous
 62
               7
100
AcDbCircle
 10
600.92583143869354
 20
346.89952363549179
 30
0.0
 40
1.0
100
AcDbArc
 50
0.0
 51
180.0
  0
ARC
  5
261
100
AcDbEntity
  8
0
  6
Continuous
 62
               7
100
AcDbCircle
 10
602.92583143869354
 20
346.89952363549179
 30
0.0
 40
1.0
100
AcDbArc
 50
0.0
 51
180.0
  0
ARC
  5
262
100
AcDbEntity
  8
0
  6
Continuous
 62
               7
100
AcDbCircle
 10
604.92583143869354
 20
346.89952363549179
 30
0.0
 40
1.0
100
AcDbArc
 50
0.0
 51
180.0
  0
ARC
  5
263
100
AcDbEntity
  8
0
  6
Continuous
 62
               7
100
AcDbCircle
 10
606.92583143869354
 20
346.89952363549179
 30
0.0
 40
1.0
100
AcDbArc
 50
0.0
 51
180.0
  0
ARC
  5
264
100
AcDbEntity
  8
0
  6
Continuous
 62
               7
100
AcDbCircle
 10
608.92583143869354
 20
346.89952363549179
 30
0.0
 40
1.0
100
AcDbArc
 50
0.0
 51
180.0
  0
ARC
  5
265
100
AcDbEntity
  8
0
  6
Continuous
 62
               7
100
AcDbCircle
 10
590.92583143869354
 20
311.89952363549179
 30
0.0
 40
1.0
100
AcDbArc
 50
180.0
 51
0.0
  0
ARC
  5
266
100
AcDbEntity
  8
0
  6
Continuous
 62
               7
100
AcDbCircle
 10
592.92583143869354
 20
311.89952363549179
 30
0.0
 40
1.0
100
AcDbArc
 50
180.0
 51
0.0
  0
ARC
  5
267
100
AcDbEntity
  8
0
  6
Continuous
 62
               7
100
AcDbCircle
 10
594.92583143869354
 20
311.89952363549179
 30
0.0
 40
1.0
100
AcDbArc
 50
180.0
 51
0.0
  0
ARC
  5
268
100
AcDbEntity
  8
0
  6
Continuous
 62
               7
100
AcDbCircle
 10
596.92583143869354
 20
311.89952363549179
 30
0.0
 40
1.0
100
AcDbArc
 50
180.0
 51
0.0
  0
ARC
  5
269
100
AcDbEntity
  8
0
  6
Continuous
 62
               7
100
AcDbCircle
 10
598.92583143869354
 20
311.89952363549179
 30
0.0
 40
1.0
100
AcDbArc
 50
180.0
 51
0.0
  0
ARC
  5
26A
100
AcDbEntity
  8
0
  6
Continuous
 62
               7
100
AcDbCircle
 10
600.92583143869354
 20
311.89952363549179
 30
0.0
 40
1.0
100
AcDbArc
 50
180.0
 51
0.0
  0
ARC
  5
26B
100
AcDbEntity
  8
0
  6
Continuous
 62
               7
100
AcDbCircle
 10
602.92583143869354
 20
311.89952363549179
 30
0.0
 40
1.0
100
AcDbArc
 50
180.0
 51
0.0
  0
ARC
  5
26C
100
AcDbEntity
  8
0
  6
Continuous
 62
               7
100
AcDbCircle
 10
604.92583143869354
 20
311.89952363549179
 30
0.0
 40
1.0
100
AcDbArc
 50
180.0
 51
0.0
  0
ARC
  5
26D
100
AcDbEntity
  8
0
  6
Continuous
 62
               7
100
AcDbCircle
 10
606.92583143869354
 20
311.89952363549179
 30
0.0
 40
1.0
100
AcDbArc
 50
180.0
 51
0.0
  0
ARC
  5
26E
100
AcDbEntity
  8
0
  6
Continuous
 62
               7
100
AcDbCircle
 10
608.92583143869354
 20
311.89952363549179
 30
0.0
 40
1.0
100
AcDbArc
 50
180.0
 51
0.0
  0
ARC
  5
26F
100
AcDbEntity
  8
0
  6
Continuous
 62
               6
100
AcDbCircle
 10
491.42583143869331
 20
346.89952363549349
 30
0.0
 40
3.2000000000000002
100
AcDbArc
 50
89.999999999999957
 51
180.0
  0
ARC
  5
270
100
AcDbEntity
  8
0
  6
Continuous
 62
               6
100
AcDbCircle
 10
546.4258314386949
 20
346.89952363549349
 30
0.0
 40
3.2000000000000002
100
AcDbArc
 50
0.0
 51
89.999999999999957
  0
ARC
  5
271
100
AcDbEntity
  8
0
  6
Continuous
 62
               7
100
AcDbCircle
 10
497.92583143869376
 20
289.8995236354927
 30
0.0
 40
2.0
100
AcDbArc
 50
89.999999999999957
 51
180.0
  0
ARC
  5
272
100
AcDbEntity
  8
0
  6
Continuous
 62
               7
100
AcDbCircle
 10
514.92583143869422
 20
332.89952363549349
 30
0.0
 40
2.0
100
AcDbArc
 50
0.0
 51
89.999999999999957
  0
ARC
  5
273
100
AcDbEntity
  8
0
  6
Continuous
 62
               7
100
AcDbCircle
 10
514.92583143869422
 20
293.8995236354927
 30
0.0
 40
2.0
100
AcDbArc
 50
269.99999999999994
 51
0.0
  0
ARC
  5
274
100
AcDbEntity
  8
0
  6
Continuous
 62
               7
100
AcDbCircle
 10
483.92583143869376
 20
274.72795076023903
 30
0.0
 40
2.0
100
AcDbArc
 50
180.0
 51
224.99999999999997
  0
ARC
  5
275
100
AcDbEntity
  8
0
  6
Continuous
 62
               7
100
AcDbCircle
 10
486.75425856343998
 20
271.89952363549281
 30
0.0
 40
2.0
100
AcDbArc
 50
224.99999999999997
 51
269.99999999999994
  0
ARC
  5
276
100
AcDbEntity
  8
0
  6
Continuous
 62
               7
100
AcDbCircle
 10
493.92583143869376
 20
271.89952363549281
 30
0.0
 40
2.0
100
AcDbArc
 50
269.99999999999994
 51
0.0
  0
ARC
  5
277
100
AcDbEntity
  8
0
  6
Continuous
 62
               7
100
AcDbCircle
 10
494.42583143869376
 20
346.39952363549372
 30
0.0
 40
0.5
100
AcDbArc
 50
89.999999999999957
 51
180.0
  0
ARC
  5
278
100
AcDbEntity
  8
0
  6
Continuous
 62
               7
100
AcDbCircle
 10
497.92583143869376
 20
346.39952363549372
 30
0.0
 40
0.5
100
AcDbArc
 50
0.0
 51
89.999999999999957
  0
ARC
  5
279
100
AcDbEntity
  8
0
  6
Continuous
 62
               7
100
AcDbCircle
 10
501.92583143869376
 20
346.39952363549372
 30
0.0
 40
0.5
100
AcDbArc
 50
89.999999999999957
 51
180.0
  0
ARC
  5
27A
100
AcDbEntity
  8
0
  6
Continuous
 62
               7
100
AcDbCircle
 10
498.92583143869376
 20
339.39952363549361
 30
0.0
 40
0.5
100
AcDbArc
 50
180.0
 51
269.99999999999994
  0
ARC
  5
27B
100
AcDbEntity
  8
0
  6
Continuous
 62
               7
100
AcDbCircle
 10
500.92583143869376
 20
339.39952363549361
 30
0.0
 40
0.5
100
AcDbArc
 50
269.99999999999994
 51
0.0
  0
ARC
  5
27C
100
AcDbEntity
  8
0
  6
Continuous
 62
               7
100
AcDbCircle
 10
494.42583143869376
 20
335.39952363549349
 30
0.0
 40
0.5
100
AcDbArc
 50
180.0
 51
269.99999999999994
  0
ARC
  5
27D
100
AcDbEntity
  8
0
  6
Continuous
 62
               7
100
AcDbCircle
 10
483.42583143869376
 20
291.3995236354927
 30
0.0
 40
0.5
100
AcDbArc
 50
0.0
 51
89.999999999999957
  0
ARC
  5
27E
100
AcDbEntity
  8
0
  6
Continuous
 62
               7
100
AcDbCircle
 10
483.42583143869376
 20
290.3995236354927
 30
0.0
 40
0.5
100
AcDbArc
 50
269.99999999999994
 51
0.0
  0
ARC
  5
27F
100
AcDbEntity
  8
0
  6
Continuous
 62
               7
100
AcDbCircle
 10
482.42583143869376
 20
289.3995236354927
 30
0.0
 40
0.5
100
AcDbArc
 50
89.999999999999957
 51
180.0
  0
ARC
  5
280
100
AcDbEntity
  8
0
  6
Continuous
 62
               7
100
AcDbCircle
 10
479.42583143869376
 20
291.3995236354927
 30
0.0
 40
0.5
100
AcDbArc
 50
89.999999999999957
 51
180.0
  0
ARC
  5
281
100
AcDbEntity
  8
0
  6
Continuous
 62
               7
100
AcDbCircle
 10
492.13293821988043
 20
257.39952363549259
 30
0.0
 40
0.5
100
AcDbArc
 50
224.99999999999991
 51
269.99999999999994
  0
ARC
  5
282
100
AcDbEntity
  8
0
  6
Continuous
 62
               7
100
AcDbCircle
 10
500.42583143869376
 20
259.39952363549259
 30
0.0
 40
0.5
100
AcDbArc
 50
89.999999999999957
 51
180.0
  0
ARC
  5
283
100
AcDbEntity
  8
0
  6
Continuous
 62
               7
100
AcDbCircle
 10
507.42583143869376
 20
260.39952363549259
 30
0.0
 40
0.5
100
AcDbArc
 50
269.99999999999994
 51
0.0
  0
ARC
  5
284
100
AcDbEntity
  8
0
  6
Continuous
 62
               7
100
AcDbCircle
 10
507.42583143869376
 20
267.8995236354927
 30
0.0
 40
0.5
100
AcDbArc
 50
0.0
 51
89.999999999999957
  0
ARC
  5
285
100
AcDbEntity
  8
0
  6
Continuous
 62
               7
100
AcDbCircle
 10
500.92583143869376
 20
268.8995236354927
 30
0.0
 40
0.5
100
AcDbArc
 50
180.0
 51
269.99999999999994
  0
ARC
  5
286
100
AcDbEntity
  8
0
  6
Continuous
 62
               7
100
AcDbCircle
 10
539.9258314386949
 20
289.8995236354927
 30
0.0
 40
2.0
100
AcDbArc
 50
0.0
 51
90.000000000000028
  0
ARC
  5
287
100
AcDbEntity
  8
0
  6
Continuous
 62
               7
100
AcDbCircle
 10
522.92583143869444
 20
332.89952363549338
 30
0.0
 40
2.0
100
AcDbArc
 50
90.000000000000028
 51
180.0
  0
ARC
  5
288
100
AcDbEntity
  8
0
  6
Continuous
 62
               7
100
AcDbCircle
 10
522.92583143869444
 20
293.8995236354927
 30
0.0
 40
2.0
100
AcDbArc
 50
180.0
 51
269.99999999999994
  0
ARC
  5
289
100
AcDbEntity
  8
0
  6
Continuous
 62
               7
100
AcDbCircle
 10
553.92583143869513
 20
274.72795076023891
 30
0.0
 40
2.0
100
AcDbArc
 50
314.99999999999994
 51
0.0
  0
ARC
  5
28A
100
AcDbEntity
  8
0
  6
Continuous
 62
               7
100
AcDbCircle
 10
551.09740431394891
 20
271.8995236354927
 30
0.0
 40
2.0
100
AcDbArc
 50
269.99999999999994
 51
314.99999999999994
  0
ARC
  5
28B
100
AcDbEntity
  8
0
  6
Continuous
 62
               7
100
AcDbCircle
 10
543.92583143869513
 20
271.8995236354927
 30
0.0
 40
2.0
100
AcDbArc
 50
180.0
 51
269.99999999999994
  0
ARC
  5
28C
100
AcDbEntity
  8
0
  6
Continuous
 62
               7
100
AcDbCircle
 10
543.42583143869513
 20
346.39952363549361
 30
0.0
 40
0.5
100
AcDbArc
 50
0.0
 51
90.000000000000028
  0
ARC
  5
28D
100
AcDbEntity
  8
0
  6
Continuous
 62
               7
100
AcDbCircle
 10
539.9258314386949
 20
346.39952363549361
 30
0.0
 40
0.5
100
AcDbArc
 50
90.000000000000028
 51
180.0
  0
ARC
  5
28E
100
AcDbEntity
  8
0
  6
Continuous
 62
               7
100
AcDbCircle
 10
535.9258314386949
 20
346.39952363549361
 30
0.0
 40
0.5
100
AcDbArc
 50
0.0
 51
90.000000000000028
  0
ARC
  5
28F
100
AcDbEntity
  8
0
  6
Continuous
 62
               7
100
AcDbCircle
 10
538.9258314386949
 20
339.39952363549349
 30
0.0
 40
0.5
100
AcDbArc
 50
269.99999999999994
 51
0.0
  0
ARC
  5
290
100
AcDbEntity
  8
0
  6
Continuous
 62
               7
100
AcDbCircle
 10
536.9258314386949
 20
339.39952363549349
 30
0.0
 40
0.5
100
AcDbArc
 50
180.0
 51
269.99999999999994
  0
ARC
  5
291
100
AcDbEntity
  8
0
  6
Continuous
 62
               7
100
AcDbCircle
 10
543.42583143869513
 20
335.39952363549349
 30
0.0
 40
0.5
100
AcDbArc
 50
269.99999999999994
 51
0.0
  0
ARC
  5
292
100
AcDbEntity
  8
0
  6
Continuous
 62
               7
100
AcDbCircle
 10
554.42583143869513
 20
291.3995236354927
 30
0.0
 40
0.5
100
AcDbArc
 50
90.000000000000028
 51
180.0
  0
ARC
  5
293
100
AcDbEntity
  8
0
  6
Continuous
 62
               7
100
AcDbCircle
 10
554.42583143869513
 20
290.3995236354927
 30
0.0
 40
0.5
100
AcDbArc
 50
180.0
 51
269.99999999999994
  0
ARC
  5
294
100
AcDbEntity
  8
0
  6
Continuous
 62
               7
100
AcDbCircle
 10
555.42583143869513
 20
289.3995236354927
 30
0.0
 40
0.5
100
AcDbArc
 50
0.0
 51
90.000000000000028
  0
ARC
  5
295
100
AcDbEntity
  8
0
  6
Continuous
 62
               7
100
AcDbCircle
 10
558.42583143869513
 20
291.3995236354927
 30
0.0
 40
0.5
100
AcDbArc
 50
0.0
 51
90.000000000000028
  0
ARC
  5
296
100
AcDbEntity
  8
0
  6
Continuous
 62
               7
100
AcDbCircle
 10
545.71872465750823
 20
257.39952363549088
 30
0.0
 40
0.5
100
AcDbArc
 50
269.99999999999994
 51
315.00000000000006
  0
ARC
  5
297
100
AcDbEntity
  8
0
  6
Continuous
 62
               7
100
AcDbCircle
 10
538.4258314386949
 20
257.39952363549259
 30
0.0
 40
0.5
100
AcDbArc
 50
180.0
 51
269.99999999999994
  0
ARC
  5
298
100
AcDbEntity
  8
0
  6
Continuous
 62
               7
100
AcDbCircle
 10
537.4258314386949
 20
259.39952363549259
 30
0.0
 40
0.5
100
AcDbArc
 50
0.0
 51
90.000000000000028
  0
ARC
  5
299
100
AcDbEntity
  8
0
  6
Continuous
 62
               7
100
AcDbCircle
 10
530.42583143869467
 20
260.39952363549259
 30
0.0
 40
0.5
100
AcDbArc
 50
180.0
 51
269.99999999999994
  0
ARC
  5
29A
100
AcDbEntity
  8
0
  6
Continuous
 62
               7
100
AcDbCircle
 10
530.42583143869467
 20
267.8995236354927
 30
0.0
 40
0.5
100
AcDbArc
 50
90.000000000000028
 51
180.0
  0
ARC
  5
29B
100
AcDbEntity
  8
0
  6
Continuous
 62
               7
100
AcDbCircle
 10
536.9258314386949
 20
268.8995236354927
 30
0.0
 40
0.5
100
AcDbArc
 50
269.99999999999994
 51
0.0
  0
ARC
  5
29C
100
AcDbEntity
  8
0
  6
Continuous
 62
               7
100
AcDbCircle
 10
508.92583143869376
 20
229.39952363549233
 30
0.0
 40
1.0
100
AcDbArc
 50
0.0
 51
180.00000000000006
  0
ARC
  5
29D
100
AcDbEntity
  8
0
  6
Continuous
 62
               7
100
AcDbCircle
 10
510.92583143869399
 20
229.39952363549233
 30
0.0
 40
1.0
100
AcDbArc
 50
0.0
 51
180.00000000000006
  0
ARC
  5
29E
100
AcDbEntity
  8
0
  6
Continuous
 62
               7
100
AcDbCircle
 10
512.92583143869422
 20
229.39952363549233
 30
0.0
 40
1.0
100
AcDbArc
 50
0.0
 51
180.00000000000006
  0
ARC
  5
29F
100
AcDbEntity
  8
0
  6
Continuous
 62
               7
100
AcDbCircle
 10
514.92583143869422
 20
229.39952363549233
 30
0.0
 40
1.0
100
AcDbArc
 50
0.0
 51
180.00000000000006
  0
ARC
  5
2A0
100
AcDbEntity
  8
0
  6
Continuous
 62
               7
100
AcDbCircle
 10
516.92583143869422
 20
229.39952363549233
 30
0.0
 40
1.0
100
AcDbArc
 50
0.0
 51
180.00000000000006
  0
ARC
  5
2A1
100
AcDbEntity
  8
0
  6
Continuous
 62
               7
100
AcDbCircle
 10
518.92583143869422
 20
229.39952363549227
 30
0.0
 40
1.0
100
AcDbArc
 50
0.0
 51
180.00000000000006
  0
ARC
  5
2A2
100
AcDbEntity
  8
0
  6
Continuous
 62
               7
100
AcDbCircle
 10
520.92583143869444
 20
229.39952363549227
 30
0.0
 40
1.0
100
AcDbArc
 50
0.0
 51
180.00000000000006
  0
ARC
  5
2A3
100
AcDbEntity
  8
0
  6
Continuous
 62
               7
100
AcDbCircle
 10
522.92583143869422
 20
229.39952363549227
 30
0.0
 40
1.0
100
AcDbArc
 50
0.0
 51
180.00000000000006
  0
ARC
  5
2A4
100
AcDbEntity
  8
0
  6
Continuous
 62
               7
100
AcDbCircle
 10
524.92583143869444
 20
229.39952363549227
 30
0.0
 40
1.0
100
AcDbArc
 50
0.0
 51
180.00000000000006
  0
ARC
  5
2A5
100
AcDbEntity
  8
0
  6
Continuous
 62
               7
100
AcDbCircle
 10
526.92583143869467
 20
229.39952363549227
 30
0.0
 40
1.0
100
AcDbArc
 50
0.0
 51
180.00000000000006
  0
ARC
  5
2A6
100
AcDbEntity
  8
0
  6
Continuous
 62
               7
100
AcDbCircle
 10
528.92583143869467
 20
229.39952363549227
 30
0.0
 40
1.0
100
AcDbArc
 50
0.0
 51
180.00000000000006
  0
ARC
  5
2A7
100
AcDbEntity
  8
0
  6
Continuous
 62
               7
100
AcDbCircle
 10
499.42583143869376
 20
257.39950189694599
 30
0.0
 40
0.5
100
AcDbArc
 50
269.99982921358338
 51
0.0
  0
ARC
  5
2A8
100
AcDbEntity
  8
0
  6
Continuous
 62
               7
100
AcDbCircle
 10
500.92583143869376
 20
287.3995236354927
 30
0.0
 40
0.5
100
AcDbArc
 50
89.999999999999957
 51
180.0
  0
ARC
  5
2A9
100
AcDbEntity
  8
0
  6
Continuous
 62
               7
100
AcDbCircle
 10
536.9258314386949
 20
287.3995236354927
 30
0.0
 40
0.5
100
AcDbArc
 50
0.0
 51
89.999999999999957
  0
ARC
  5
2AA
100
AcDbEntity
  8
0
  6
Continuous
 62
               7
100
AcDbCircle
 10
558.42583143869513
 20
270.10663041667937
 30
0.0
 40
0.5
100
AcDbArc
 50
315.00000000000023
 51
0.0
  0
ARC
  5
2AB
100
AcDbEntity
  8
0
  6
Continuous
 62
               7
100
AcDbCircle
 10
479.42583143869376
 20
270.10663041667937
 30
0.0
 40
0.5
100
AcDbArc
 50
180.0
 51
224.99999999999986
  0
ARC
  5
2AC
100
AcDbEntity
  8
0
  6
Continuous
 62
               7
100
AcDbCircle
 10
545.71872465750846
 20
257.39952363549259
 30
0.0
 40
0.5
100
AcDbArc
 50
269.99999999999994
 51
315.00000000000017
  0
ARC
  5
2AD
100
AcDbEntity
  8
0
  6
Continuous
 62
               4
100
AcDbCircle
 10
621.92583143869354
 20
376.89952363549111
 30
0.0
 40
2.0
100
AcDbArc
 50
180.0
 51
269.99999999999994
  0
ARC
  5
2AE
100
AcDbEntity
  8
0
  6
Continuous
 62
               4
100
AcDbCircle
 10
594.92583143869354
 20
403.89952363549111
 30
0.0
 40
2.0
100
AcDbArc
 50
180.0
 51
269.99999999999994
  0
ARC
  5
2AF
100
AcDbEntity
  8
0
  6
Continuous
 62
               4
100
AcDbCircle
 10
615.92583143869354
 20
397.89952363549111
 30
0.0
 40
4.0
100
AcDbArc
 50
0.0
 51
89.999999999999957
  0
ARC
  5
2B0
100
AcDbEntity
  8
0
  6
DASHED
 62
               6
100
AcDbCircle
 10
296.19116009360329
 20
352.98931849115399
 30
0.0
 40
1.0
100
AcDbArc
 50
269.99999999999994
 51
0.0
  0
ARC
  5
2B1
100
AcDbEntity
  8
0
  6
DASHED
 62
               6
100
AcDbCircle
 10
198.19116009360306
 20
352.98931849115399
 30
0.0
 40
1.0
100
AcDbArc
 50
180.0
 51
269.99999999999994
  0
ARC
  5
2B2
100
AcDbEntity
  8
0
  6
DASHED
 62
               6
100
AcDbCircle
 10
298.19116009360329
 20
362.98931849115399
 30
0.0
 40
1.0
100
AcDbArc
 50
89.999999999999957
 51
180.0
  0
ARC
  5
2B3
100
AcDbEntity
  8
0
  6
DASHED
 62
               6
100
AcDbCircle
 10
196.19116009360306
 20
362.98931849115399
 30
0.0
 40
1.0
100
AcDbArc
 50
0.0
 51
89.999999999999957
  0
ARC
  5
2B4
100
AcDbEntity
  8
0
  6
Continuous
 62
               3
100
AcDbCircle
 10
243.65278868699642
 20
358.78931849115401
 30
0.0
 40
0.3
100
AcDbArc
 50
156.03751102542182
 51
269.99999999999994
  0
ARC
  5
2B5
100
AcDbEntity
  8
0
  6
Continuous
 62
               3
100
AcDbCircle
 10
245.19116009360329
 20
356.48931849115399
 30
0.0
 40
1.0
100
AcDbArc
 50
269.99999999999994
 51
0.0
  0
ARC
  5
2B6
100
AcDbEntity
  8
0
  6
Continuous
 62
               3
100
AcDbCircle
 10
235.79701277908947
 20
364.95809417889222
 30
0.0
 40
0.5
100
AcDbArc
 50
273.99999999999994
 51
3.9999999999999547
  0
ARC
  5
2B7
100
AcDbEntity
  8
0
  6
Continuous
 62
               3
100
AcDbCircle
 10
235.72725630534541
 20
365.95565822915205
 30
0.0
 40
0.5
100
AcDbArc
 50
4.0000000000000471
 51
93.999999999999957
  0
ARC
  5
2B8
100
AcDbEntity
  8
0
  6
Continuous
 62
               3
100
AcDbCircle
 10
215.79457682934907
 20
363.55938760182261
 30
0.0
 40
0.5
100
AcDbArc
 50
183.99999999999991
 51
273.99999999999994
  0
ARC
  5
2B9
100
AcDbEntity
  8
0
  6
Continuous
 62
               3
100
AcDbCircle
 10
215.724820355605
 20
364.55695165208243
 30
0.0
 40
0.5
100
AcDbArc
 50
93.999999999999957
 51
184.00000000000003
  0
ARC
  5
2BA
100
AcDbEntity
  8
0
  6
Continuous
 62
               3
100
AcDbCircle
 10
224.19116009360295
 20
356.48931849115399
 30
0.0
 40
1.0
100
AcDbArc
 50
180.0
 51
269.99999999999994
  0
ARC
  5
2BB
100
AcDbEntity
  8
0
  6
Continuous
 62
               3
100
AcDbCircle
 10
220.19116009360295
 20
356.48931849115399
 30
0.0
 40
1.0
100
AcDbArc
 50
269.99999999999994
 51
0.0
  0
ARC
  5
2BC
100
AcDbEntity
  8
0
  6
Continuous
 62
               3
100
AcDbCircle
 10
201.69116009360306
 20
357.48931849115399
 30
0.0
 40
2.0
100
AcDbArc
 50
180.0
 51
269.99999999999994
  0
ARC
  5
2BD
100
AcDbEntity
  8
0
  6
Continuous
 62
               3
100
AcDbCircle
 10
201.19116009360306
 20
356.98931849115399
 30
0.0
 40
3.0
100
AcDbArc
 50
180.0
 51
269.99999999999994
  0
ARC
  5
2BE
100
AcDbEntity
  8
0
  6
Continuous
 62
               3
100
AcDbCircle
 10
199.19116009360306
 20
365.48931849115399
 30
0.0
 40
0.5
100
AcDbArc
 50
0.0
 51
89.999999999999957
  0
ARC
  5
2BF
100
AcDbEntity
  8
0
  6
Continuous
 62
               3
100
AcDbCircle
 10
250.72953150021004
 20
358.78931849115401
 30
0.0
 40
0.3
100
AcDbArc
 50
269.99999999999994
 51
23.962488974578189
  0
ARC
  5
2C0
100
AcDbEntity
  8
0
  6
Continuous
 62
               3
100
AcDbCircle
 10
249.19116009360329
 20
356.48931849115399
 30
0.0
 40
1.0
100
AcDbArc
 50
180.0
 51
269.99999999999994
  0
ARC
  5
2C1
100
AcDbEntity
  8
0
  6
Continuous
 62
               3
100
AcDbCircle
 10
258.58530740811699
 20
364.95809417889222
 30
0.0
 40
0.5
100
AcDbArc
 50
176.0
 51
266.0
  0
ARC
  5
2C2
100
AcDbEntity
  8
0
  6
Continuous
 62
               3
100
AcDbCircle
 10
258.65506388186117
 20
365.95565822915205
 30
0.0
 40
0.5
100
AcDbArc
 50
86.000000000000028
 51
175.99999999999994
  0
ARC
  5
2C3
100
AcDbEntity
  8
0
  6
Continuous
 62
               3
100
AcDbCircle
 10
278.58774335785728
 20
363.55938760182261
 30
0.0
 40
0.5
100
AcDbArc
 50
266.0
 51
356.0
  0
ARC
  5
2C4
100
AcDbEntity
  8
0
  6
Continuous
 62
               3
100
AcDbCircle
 10
278.65749983160134
 20
364.55695165208243
 30
0.0
 40
0.5
100
AcDbArc
 50
355.99999999999989
 51
86.000000000000043
  0
ARC
  5
2C5
100
AcDbEntity
  8
0
  6
Continuous
 62
               3
100
AcDbCircle
 10
270.19116009360329
 20
356.48931849115399
 30
0.0
 40
1.0
100
AcDbArc
 50
269.99999999999994
 51
0.0
  0
ARC
  5
2C6
100
AcDbEntity
  8
0
  6
Continuous
 62
               3
100
AcDbCircle
 10
274.19116009360329
 20
356.48931849115399
 30
0.0
 40
1.0
100
AcDbArc
 50
180.0
 51
269.99999999999994
  0
ARC
  5
2C7
100
AcDbEntity
  8
0
  6
Continuous
 62
               3
100
AcDbCircle
 10
292.69116009360329
 20
357.48931849115399
 30
0.0
 40
2.0
100
AcDbArc
 50
269.99999999999994
 51
0.0
  0
ARC
  5
2C8
100
AcDbEntity
  8
0
  6
Continuous
 62
               3
100
AcDbCircle
 10
293.19116009360329
 20
356.98931849115399
 30
0.0
 40
3.0
100
AcDbArc
 50
269.99999999999994
 51
0.0
  0
ARC
  5
2C9
100
AcDbEntity
  8
0
  6
Continuous
 62
               3
100
AcDbCircle
 10
295.19116009360329
 20
365.48931849115399
 30
0.0
 40
0.5
100
AcDbArc
 50
90.000000000000028
 51
180.0
  0
ARC
  5
2CA
100
AcDbEntity
  8
0
  6
Continuous
 62
               3
100
AcDbCircle
 10
295.19116009360329
 20
365.48931849115399
 30
0.0
 40
0.5
100
AcDbArc
 50
89.999999999999957
 51
180.0
  0
ARC
  5
2CB
100
AcDbEntity
  8
0
  6
Continuous
 62
               3
100
AcDbCircle
 10
241.91923546566949
 20
357.53278255570649
 30
0.0
 40
1.0
100
AcDbArc
 50
168.31063082456077
 51
269.99999999999994
  0
ARC
  5
2CC
100
AcDbEntity
  8
0
  6
Continuous
 62
               3
100
AcDbCircle
 10
242.46308472153697
 20
368.53278255570649
 30
0.0
 40
1.0
100
AcDbArc
 50
348.31063082456086
 51
90.0
  0
ARC
  5
2CD
100
AcDbEntity
  8
0
  6
Continuous
 62
               3
100
AcDbCircle
 10
252.46308472153697
 20
357.53278255570649
 30
0.0
 40
1.0
100
AcDbArc
 50
269.99999999999994
 51
11.68936917543915
  0
ARC
  5
2CE
100
AcDbEntity
  8
0
  6
Continuous
 62
               3
100
AcDbCircle
 10
251.91923546566949
 20
368.53278255570649
 30
0.0
 40
1.0
100
AcDbArc
 50
89.999999999999915
 51
191.68936917543914
  0
ARC
  5
2CF
100
AcDbEntity
  8
0
  6
Continuous
 62
               4
100
AcDbCircle
 10
587.42583143869354
 20
368.75682587600471
 30
0.0
 40
2.0
100
AcDbArc
 50
0.0
 51
89.999999999999957
  0
ARC
  5
2D0
100
AcDbEntity
  8
0
  6
Continuous
 62
               4
100
AcDbCircle
 10
560.42583143869354
 20
395.75682587600471
 30
0.0
 40
2.0
100
AcDbArc
 50
0.0
 51
89.999999999999957
  0
ARC
  5
2D1
100
AcDbEntity
  8
0
  6
Continuous
 62
               4
100
AcDbCircle
 10
566.42583143869354
 20
374.75682587600471
 30
0.0
 40
4.0
100
AcDbArc
 50
180.0
 51
269.99999999999994
  0
ARC
  5
2D2
100
AcDbEntity
  8
0
  6
Continuous
 62
               3
100
AcDbCircle
 10
222.25996743305285
 20
368.35351213692462
 30
0.0
 40
0.23945657130529
100
AcDbArc
 50
106.6992442339936
 51
286.69924423399362
  0
ARC
  5
2D3
100
AcDbEntity
  8
0
  6
Continuous
 62
               3
100
AcDbCircle
 10
272.12235275415372
 20
368.35351213692462
 30
0.0
 40
0.23945657130529
100
AcDbArc
 50
253.3007557660064
 51
73.30075576600639
  0
TEXT
  5
2D4
100
AcDbEntity
  8
0
 62
               7
100
AcDbText
 10
561.70765100691619
 20
127.33121440122497
 30
0.0
 40
12.000000000000012
  1
グローブ
 41
0.7695
  7
FontTableH_0
 72
               5
 11
609.70765100691619
 21
127.33121440122497
 31
0.0
100
AcDbText
  0
TEXT
  5
2D5
100
AcDbEntity
  8
0
 62
               7
100
AcDbText
 10
585.42583143869422
 20
179.39952363549108
 30
0.0
 40
12.000000000000012
  1
65
 41
0.7695
  7
FontTableH_0
 72
               5
 11
597.42583143869422
 21
179.39952363549108
 31
0.0
100
AcDbText
  0
TEXT
  5
2D6
100
AcDbEntity
  8
0
 62
               7
100
AcDbText
 10
532.92583143869422
 20
179.39952363549108
 30
0.0
 40
12.000000000000012
  1
40
 41
0.7695
  7
FontTableH_0
 72
               5
 11
544.92583143869422
 21
179.39952363549108
 31
0.0
100
AcDbText
  0
TEXT
  5
2D7
100
AcDbEntity
  8
0
 62
               7
100
AcDbText
 10
588.92583143869376
 20
221.89952363549108
 30
0.0
 40
12.000000000000012
  1
25
 50
90.000000000000028
 41
0.7695
  7
FontTableH_0
 72
               5
 11
588.92583143869376
 21
233.89952363549108
 31
0.0
100
AcDbText
  0
TEXT
  5
2D8
100
AcDbEntity
  8
0
 62
               7
100
AcDbText
 10
367.37430478771432
 20
221.76479779633573
 30
0.0
 40
12.000000000000012
  1
M20ボルトナット加工
 41
0.7695
  7
FontTableH_0
 72
               5
 11
481.37430478771444
 21
221.76479779633573
 31
0.0
100
AcDbText
  0
TEXT
  5
2D9
100
AcDbEntity
  8
0
 62
               7
100
AcDbText
 10
407.49240437550026
 20
239.96040407188039
 30
0.0
 40
12.000000000000012
  1
アルミ型材
 41
0.7695
  7
FontTableH_0
 72
               5
 11
467.49240437550031
 21
239.96040407188039
 31
0.0
100
AcDbText
  0
TEXT
  5
2DA
100
AcDbEntity
  8
0
 62
               7
100
AcDbText
 10
352.92583143869388
 20
268.39952363549264
 30
0.0
 40
12.000000000000012
  1
35
 50
90.000000000000028
 41
0.7695
  7
FontTableH_0
 72
               5
 11
352.92583143869388
 21
280.39952363549264
 31
0.0
100
AcDbText
  0
TEXT
  5
2DB
100
AcDbEntity
  8
0
 62
               7
100
AcDbText
 10
352.92583143869388
 20
230.89952363549193
 30
0.0
 40
12.000000000000012
  1
40
 50
90.000000000000028
 41
0.7695
  7
FontTableH_0
 72
               5
 11
352.92583143869388
 21
242.89952363549193
 31
0.0
100
AcDbText
  0
TEXT
  5
2DC
100
AcDbEntity
  8
0
 62
               7
100
AcDbText
 10
334.92583143869388
 20
248.39952363549122
 30
0.0
 40
12.000000000000012
  1
75
 50
90.000000000000028
 41
0.7695
  7
FontTableH_0
 72
               5
 11
334.92583143869388
 21
260.39952363549122
 31
0.0
100
AcDbText
  0
TEXT
  5
2DD
100
AcDbEntity
  8
0
 62
               7
100
AcDbText
 10
166.73950892896795
 20
260.1863519102547
 30
0.0
 40
12.000000000000012
  1
天井仕上材 t=1.0mm
 41
0.7695
  7
FontTableH_0
 72
               5
 11
274.73950892896806
 21
260.1863519102547
 31
0.0
100
AcDbText
  0
TEXT
  5
2DE
100
AcDbEntity
  8
0
 62
               7
100
AcDbText
 10
334.92583143869388
 20
323.39954243201583
 30
0.0
 40
12.000000000000012
  1
75
 50
90.000000000000028
 41
0.7695
  7
FontTableH_0
 72
               5
 11
334.92583143869388
 21
335.39954243201583
 31
0.0
100
AcDbText
  0
TEXT
  5
2DF
100
AcDbEntity
  8
0
 62
               7
100
AcDbText
 10
380.07934677078555
 20
303.63584740565824
 30
0.0
 40
12.000000000000012
  1
吊金具
 41
0.7695
  7
FontTableH_0
 72
               5
 11
416.07934677078561
 21
303.63584740565824
 31
0.0
100
AcDbText
  0
TEXT
  5
2E0
100
AcDbEntity
  8
0
 62
               7
100
AcDbText
 10
665.96683082782454
 20
178.20123656147265
 30
0.0
 40
12.000000000000012
  1
幕板：屋根同材
 41
0.7695
  7
FontTableH_0
 72
               5
 11
749.96683082782465
 21
178.20123656147265
 31
0.0
100
AcDbText
  0
TEXT
  5
2E1
100
AcDbEntity
  8
0
 62
               7
100
AcDbText
 10
584.35204389783928
 20
276.57176591515361
 30
0.0
 40
12.000000000000012
  1
力板：屋根同材
 41
0.7695
  7
FontTableH_0
 72
               5
 11
668.35204389783939
 21
276.57176591515361
 31
0.0
100
AcDbText
  0
TEXT
  5
2E2
100
AcDbEntity
  8
0
 62
               7
100
AcDbText
 10
695.92583143869354
 20
302.14952363549111
 30
0.0
 40
11.999999999998989
  1
190
 50
90.000000000000028
 41
0.7695
  7
FontTableH_0
 72
               5
 11
695.92583143869354
 21
320.14952363549111
 31
0.0
100
AcDbText
  0
TEXT
  5
2E3
100
AcDbEntity
  8
0
 62
               7
100
AcDbText
 10
637.29807763568658
 20
376.68056675179702
 30
0.0
 40
12.000000000000012
  1
ST 3X30 L=125 @600
 41
0.7695
  7
FontTableH_0
 72
               5
 11
745.2980776356867
 21
376.68056675179702
 31
0.0
100
AcDbText
  0
TEXT
  5
2E4
100
AcDbEntity
  8
0
 62
               7
100
AcDbText
 10
645.16117788457393
 20
434.74169898958166
 30
0.0
 40
11.999999999999842
  1
ST 3X30 通し
 41
0.7695
  7
FontTableH_0
 72
               5
 11
717.16117788457404
 21
434.74169898958166
 31
0.0
100
AcDbText
  0
TEXT
  5
2E5
100
AcDbEntity
  8
0
 62
               7
100
AcDbText
 10
575.42583143869354
 20
442.89952363549116
 30
0.0
 40
12.000000000000012
  1
85
 41
0.7695
  7
FontTableH_0
 72
               5
 11
587.42583143869354
 21
442.89952363549116
 31
0.0
100
AcDbText
  0
TEXT
  5
2E6
100
AcDbEntity
  8
0
 62
               7
100
AcDbText
 10
522.92583143869354
 20
442.89952363549116
 30
0.0
 40
12.000000000000012
  1
20
 41
0.7695
  7
FontTableH_0
 72
               5
 11
534.92583143869354
 21
442.89952363549116
 31
0.0
100
AcDbText
  0
TEXT
  5
2E7
100
AcDbEntity
  8
0
 62
               7
100
AcDbText
 10
562.42583143869354
 20
460.89952363549116
 30
0.0
 40
12.000000000000353
  1
105
 41
0.7695
  7
FontTableH_0
 72
               5
 11
580.42583143869354
 21
460.89952363549116
 31
0.0
100
AcDbText
  0
TEXT
  5
2E8
100
AcDbEntity
  8
0
 62
               7
100
AcDbText
 10
502.92583143869365
 20
390.89952363549111
 30
0.0
 40
12.000000000000012
  1
20
 50
90.000000000000028
 41
0.7695
  7
FontTableH_0
 72
               5
 11
502.92583143869365
 21
402.89952363549111
 31
0.0
100
AcDbText
  0
TEXT
  5
2E9
100
AcDbEntity
  8
0
 62
               7
100
AcDbText
 10
502.92583143869365
 20
370.89952791210811
 30
0.0
 40
12.000000000000012
  1
20
 50
90.000000000000028
 41
0.7695
  7
FontTableH_0
 72
               5
 11
502.92583143869365
 21
382.89952791210811
 31
0.0
100
AcDbText
  0
TEXT
  5
2EA
100
AcDbEntity
  8
0
 62
               7
100
AcDbText
 10
484.92583143869354
 20
380.8995283796811
 30
0.0
 40
12.000000000000012
  1
40
 50
90.000000000000028
 41
0.7695
  7
FontTableH_0
 72
               5
 11
484.92583143869354
 21
392.8995283796811
 31
0.0
100
AcDbText
  0
TEXT
  5
2EB
100
AcDbEntity
  8
0
 62
               7
100
AcDbText
 10
445.49277933535313
 20
437.58244909404124
 30
0.0
 40
12.000000000000183
  1
コーキング
 41
0.7695
  7
FontTableH_0
 72
               5
 11
505.49277933535319
 21
437.58244909404124
 31
0.0
100
AcDbText
  0
TEXT
  5
2EC
100
AcDbEntity
  8
0
 62
               7
100
AcDbText
 10
241.19116009360329
 20
415.03278255570649
 30
0.0
 40
12.000000000000012
  1
50
 41
0.7695
  7
FontTableH_0
 72
               5
 11
253.19116009360329
 21
415.03278255570649
 31
0.0
100
AcDbText
  0
TEXT
  5
2ED
100
AcDbEntity
  8
0
 62
               7
100
AcDbText
 10
307.88069862804122
 20
395.30992241425037
 30
0.0
 40
12.000000000000012
  1
ガーター
 41
0.7695
  7
FontTableH_0
 72
               5
 11
355.88069862804127
 21
395.30992241425037
 31
0.0
100
AcDbText
  0
TEXT
  5
2EE
100
AcDbEntity
  8
0
 62
               7
100
AcDbText
 10
291.21092610039977
 20
419.84279519077921
 30
0.0
 40
12.000000000000353
  1
ジョイナー
 41
0.7695
  7
FontTableH_0
 72
               5
 11
351.21092610039983
 21
419.84279519077921
 31
0.0
100
AcDbText
  0
TEXT
  5
2EF
100
AcDbEntity
  8
0
 62
               7
100
AcDbText
 10
195.54564858034087
 20
327.24539697510232
 30
0.0
 40
12.000000000000012
  1
帯板
 41
0.7695
  7
FontTableH_0
 72
               5
 11
219.5456485803409
 21
327.24539697510232
 31
0.0
100
AcDbText
  0
TEXT
  5
2F0
100
AcDbEntity
  8
0
 62
               7
100
AcDbText
 10
28.392137233056218
 20
601.35786449547834
 30
0.0
 40
8.9999997615814422
  1
モヤーネ（プロムナーF仕様）
 41
0.7695
  7
FontTableH_0
 72
               5
 11
149.89213401440568
 21
601.35786449547834
 31
0.0
100
AcDbText
  0
TEXT
  5
2F1
100
AcDbEntity
  8
0
 62
               7
100
AcDbText
 10
232.46808836149
 20
397.0327825557066
 30
0.0
 40
12.000000000000012
  1
10
 41
0.7695
  7
FontTableH_0
 72
               5
 11
244.46808836149
 21
397.0327825557066
 31
0.0
100
AcDbText
  0
TEXT
  5
2F2
100
AcDbEntity
  8
0
 62
               7
100
AcDbText
 10
249.5048055674128
 20
397.0327825557066
 30
0.0
 40
12.000000000000012
  1
10
 41
0.7695
  7
FontTableH_0
 72
               5
 11
261.5048055674128
 21
397.0327825557066
 31
0.0
100
AcDbText
  0
TEXT
  5
2F3
100
AcDbEntity
  8
0
 62
               7
100
AcDbText
 10
226.18234860477162
 20
492.39476345574582
 30
0.0
 40
12.000000000000012
  1
アスファルトルーフィング 22kg
 41
0.7695
  7
FontTableH_0
 72
               5
 11
400.18234860477179
 21
492.39476345574582
 31
0.0
100
AcDbText
  0
TEXT
  5
2F4
100
AcDbEntity
  8
0
 62
               7
100
AcDbText
 10
226.18234860477162
 20
508.39470242058957
 30
0.0
 40
11.999999999999842
  1
プロムナ－ル－フF：各種金属板
 41
0.7695
  7
FontTableH_0
 72
               5
 11
400.18234860477179
 21
508.39470242058957
 31
0.0
100
AcDbText
  0
TEXT
  5
2F5
100
AcDbEntity
  8
0
 62
               7
100
AcDbText
 10
226.18234860477162
 20
476.39482449090207
 30
0.0
 40
12.000000000000012
  1
硬質木片セメント板 12mm
 41
0.7695
  7
FontTableH_0
 72
               5
 11
364.18234860477179
 21
476.39482449090207
 31
0.0
100
AcDbText
  0
TEXT
  5
2F6
100
AcDbEntity
  8
0
 62
               7
100
AcDbText
 10
740.28679787570582
 20
26.713203554805762
 30
0.0
 40
8.9999997615814422
  1
ケラバ詳細図 【S=1/3】
 41
0.7695
  7
FontTableH_0
 72
               5
 11
839.28679525310167
 21
26.713203554805762
 31
0.0
100
AcDbText
  0
ENDSEC
  0
SECTION
  2
OBJECTS
  0
DICTIONARY
  5
19
100
AcDbDictionary
  3
ACAD_GROUP
350
1A
  3
ACAD_MLINESTYLE
350
1B
  3
DWGPROPS
350
2F7
  0
DICTIONARY
  5
1A
102
{ACAD_REACTORS
330
19
102
}
100
AcDbDictionary
  0
DICTIONARY
  5
1B
102
{ACAD_REACTORS
330
19
102
}
100
AcDbDictionary
  3
STANDARD
350
1C
  0
MLINESTYLE
  5
1C
102
{ACAD_REACTORS
330
1B
102
}
100
AcDbMlineStyle
  2
Standard
 70
               0
  3

 62
               0
 51
90.0
 52
90.0
 71
               2
 49
0.5
 62
             256
  6
ByLayer
 49
-0.5
 62
             256
  6
ByLayer
  0
XRECORD
  5
2F7
100
AcDbXrecord
  1
DWGPROPS COOKIE
  2

  3

  4

  6

  7

  0
ENDSEC
  0
EOF
