  0
SECTION
  2
HEADER
  9
$ACADVER
  1
AC1014
  9
$ACADMAINTVER
 70
               0
  9
$DWGCODEPAGE
  3
ANSI_932
  9
$INSBASE
 10
0.0
 20
0.0
 30
0.0
  9
$EXTMIN
 10
0.0
 20
0.0
 30
0.0
  9
$EXTMAX
 10
891.00000000000091
 20
630.00000000000068
 30
0.0
  9
$LIMMIN
 10
0.0
 20
0.0
  9
$LIMMAX
 10
891.00000000000091
 20
630.00000000000068
  9
$ORTHOMODE
 70
               0
  9
$REGENMODE
 70
               1
  9
$FILLMODE
 70
               1
  9
$QTEXTMODE
 70
               0
  9
$MIRRTEXT
 70
               1
  9
$DRAGMODE
 70
               2
  9
$LTSCALE
 40
3.0000000000000031
  9
$OSMODE
 70
               0
  9
$ATTMODE
 70
               1
  9
$TEXTSIZE
 40
0.2
  9
$TRACEWID
 40
0.05
  9
$TEXTSTYLE
  7
Standard
  9
$CLAYER
  8
0
  9
$CELTYPE
  6
Continuous
  9
$CECOLOR
 62
             256
  9
$CELTSCALE
 40
1.0
  9
$DELOBJ
 70
               1
  9
$DISPSILH
 70
               0
  9
$DIMSCALE
 40
1.0
  9
$DIMASZ
 40
0.18
  9
$DIMEXO
 40
0.0625
  9
$DIMDLI
 40
0.38
  9
$DIMRND
 40
0.0
  9
$DIMDLE
 40
0.0
  9
$DIMEXE
 40
0.18
  9
$DIMTP
 40
0.0
  9
$DIMTM
 40
0.0
  9
$DIMTXT
 40
0.18
  9
$DIMCEN
 40
0.09
  9
$DIMTSZ
 40
0.0
  9
$DIMTOL
 70
               0
  9
$DIMLIM
 70
               0
  9
$DIMTIH
 70
               1
  9
$DIMTOH
 70
               1
  9
$DIMSE1
 70
               0
  9
$DIMSE2
 70
               0
  9
$DIMTAD
 70
               0
  9
$DIMZIN
 70
               0
  9
$DIMBLK
  1

  9
$DIMASO
 70
               1
  9
$DIMSHO
 70
               1
  9
$DIMPOST
  1

  9
$DIMAPOST
  1

  9
$DIMALT
 70
               0
  9
$DIMALTD
 70
               2
  9
$DIMALTF
 40
25.399999999999999
  9
$DIMLFAC
 40
1.0
  9
$DIMTOFL
 70
               0
  9
$DIMTVP
 40
0.0
  9
$DIMTIX
 70
               0
  9
$DIMSOXD
 70
               0
  9
$DIMSAH
 70
               0
  9
$DIMBLK1
  1

  9
$DIMBLK2
  1

  9
$DIMSTYLE
  2
Standard
  9
$DIMCLRD
 70
               0
  9
$DIMCLRE
 70
               0
  9
$DIMCLRT
 70
               0
  9
$DIMTFAC
 40
1.0
  9
$DIMGAP
 40
0.09
  9
$DIMJUST
 70
               0
  9
$DIMSD1
 70
               0
  9
$DIMSD2
 70
               0
  9
$DIMTOLJ
 70
               1
  9
$DIMTZIN
 70
               0
  9
$DIMALTZ
 70
               0
  9
$DIMALTTZ
 70
               0
  9
$DIMFIT
 70
               3
  9
$DIMUPT
 70
               0
  9
$DIMUNIT
 70
               2
  9
$DIMDEC
 70
               4
  9
$DIMTDEC
 70
               4
  9
$DIMALTU
 70
               2
  9
$DIMALTTD
 70
               2
  9
$DIMTXSTY
  7
Standard
  9
$DIMAUNIT
 70
               0
  9
$LUNITS
 70
               2
  9
$LUPREC
 70
               4
  9
$SKETCHINC
 40
0.1
  9
$FILLETRAD
 40
0.0
  9
$AUNITS
 70
               0
  9
$AUPREC
 70
               0
  9
$MENU
  1
acad
  9
$ELEVATION
 40
0.0
  9
$PELEVATION
 40
0.0
  9
$THICKNESS
 40
0.0
  9
$LIMCHECK
 70
               0
  9
$BLIPMODE
 70
               1
  9
$CHAMFERA
 40
0.0
  9
$CHAMFERB
 40
0.0
  9
$CHAMFERC
 40
0.0
  9
$CHAMFERD
 40
0.0
  9
$SKPOLY
 70
               0
  9
$TDCREATE
 40
0.000000000
  9
$TDUPDATE
 40
0.000000000
  9
$TDINDWG
 40
0.0000000000
  9
$TDUSRTIMER
 40
0.0000000000
  9
$USRTIMER
 70
               1
  9
$ANGBASE
 50
0.0
  9
$ANGDIR
 70
               0
  9
$PDMODE
 70
               0
  9
$PDSIZE
 40
0.0
  9
$PLINEWID
 40
0.0
  9
$COORDS
 70
               0
  9
$SPLFRAME
 70
               0
  9
$SPLINETYPE
 70
               6
  9
$SPLINESEGS
 70
               8
  9
$ATTDIA
 70
               0
  9
$ATTREQ
 70
               1
  9
$HANDLING
 70
               1
  9
$HANDSEED
  5
1C9
  9
$SURFTAB1
 70
               6
  9
$SURFTAB2
 70
               6
  9
$SURFTYPE
 70
               6
  9
$SURFU
 70
               6
  9
$SURFV
 70
               6
  9
$UCSNAME
  2

  9
$UCSORG
 10
0.0
 20
0.0
 30
0.0
  9
$UCSXDIR
 10
1.0
 20
0.0
 30
0.0
  9
$UCSYDIR
 10
0.0
 20
1.0
 30
0.0
  9
$PUCSNAME
  2

  9
$PUCSORG
 10
0.0
 20
0.0
 30
0.0
  9
$PUCSXDIR
 10
1.0
 20
0.0
 30
0.0
  9
$PUCSYDIR
 10
0.0
 20
1.0
 30
0.0
  9
$USERI1
 70
               0
  9
$USERI2
 70
               0
  9
$USERI3
 70
               0
  9
$USERI4
 70
               0
  9
$USERI5
 70
               0
  9
$USERR1
 40
0.0
  9
$USERR2
 40
0.0
  9
$USERR3
 40
0.0
  9
$USERR4
 40
0.0
  9
$USERR5
 40
0.0
  9
$WORLDVIEW
 70
               1
  9
$SHADEDGE
 70
               3
  9
$SHADEDIF
 70
              70
  9
$TILEMODE
 70
               1
  9
$MAXACTVP
 70
              16
  9
$PINSBASE
 10
0.0
 20
0.0
 30
0.0
  9
$PLIMCHECK
 70
               0
  9
$PEXTMIN
 10
1.0000000000000000E+20
 20
1.0000000000000000E+20
 30
1.0000000000000000E+20
  9
$PEXTMAX
 10
-1.0000000000000000E+20
 20
-1.0000000000000000E+20
 30
-1.0000000000000000E+20
  9
$PLIMMIN
 10
0.0
 20
0.0
  9
$PLIMMAX
 10
12.0
 20
9.0
  9
$UNITMODE
 70
               0
  9
$VISRETAIN
 70
               0
  9
$PLINEGEN
 70
               1
  9
$PSLTSCALE
 70
               0
  9
$TREEDEPTH
 70
            3020
  9
$PICKSTYLE
 70
               1
  9
$CMLSTYLE
  2
Standard
  9
$CMLJUST
 70
               0
  9
$CMLSCALE
 40
1.0
  9
$PROXYGRAPHICS
 70
               0
  9
$MEASUREMENT
 70
               0
  0
ENDSEC
  0
SECTION
  2
CLASSES
  0
CLASS
  1
LWPOLYLINE
  2
AcDbPolyline
  3
"AutoCAD"
 90
        0
280
               0
281
               1
  0
CLASS
  1
IMAGE
  2
AcDbRasterImage
  3
ISM
 90
      127
280
               0
281
               1
  0
CLASS
  1
OLE2FRAME
  2
AcDbOle2Frame
  3
""
 90
        0
280
               0
281
               1
  0
CLASS
  1
HATCH
  2
AcDbHatch
  3
"ACAD_SEDONA"
 90
        0
280
               0
281
               1
  0
CLASS
  1
DICTIONARYVAR
  2
AcDbDictionaryVar
  3
"AutoCAD"
 90
        0
280
               0
281
               0
  0
CLASS
  1
RASTERVARIABLES
  2
AcDbRasterVariables
  3
ISM
 90
        0
280
               0
281
               0
  0
CLASS
  1
IMAGEDEF
  2
AcDbRasterImageDef
  3
ISM
 90
        0
280
               0
281
               0
  0
CLASS
  1
IMAGEDEF_REACTOR
  2
AcDbRasterImageDefReactor
  3
ISM
 90
        1
280
               0
281
               0
  0
CLASS
  1
IDBUFFER
  2
AcDbIdBuffer
  3
"Acad"
 90
        0
280
               0
281
               0
  0
CLASS
  1
SPATIAL_FILTER
  2
AcDbSpatialFilter
  3
"Acad"
 90
        0
280
               0
281
               0
  0
CLASS
  1
XRECORD
  2
AcDbXrecord
  3
"<Built In>"
 90
        0
280
               0
281
               0
  0
CLASS
  1
SORTENTSTABLE
  2
AcDbSortentsTable
  3
"AutoCAD"
 90
        0
280
               0
281
               0
  0
CLASS
  1
LAYER_INDEX
  2
AcDbLayerIndex
  3
"Acad"
 90
        0
280
               0
281
               0
  0
CLASS
  1
SPATIAL_INDEX
  2
AcDbSpatialIndex
  3
"Acad"
 90
        0
280
               0
281
               0
  0
CLASS
  1
OBJECT_PTR
  2
CAseDLPNTableRecord
  3
"ASE-LPNTableRecord"
 90
        1
280
               0
281
               0
  0
CLASS
  1
LAYOUT
  2
AcDbLayout
  3
"AutoCAD 2000"
 90
        0
280
               0
281
               0
  0
CLASS
  1
PLOTSETTINGS
  2
AcDbPlotSettings
  3
"AutoCAD 2000"
 90
        0
280
               0
281
               0
  0
CLASS
  1
ACDBDICTIONARYWDFLT
  2
AcDbDictionaryWithDefault
  3
"AutoCAD 2000"
 90
        0
280
               0
281
               0
  0
CLASS
  1
ACDBPLACEHOLDER
  2
AcDbPlaceHolder
  3
"AutoCAD 2000"
 90
        0
280
               0
281
               0
  0
CLASS
  1
VBA_PROJECT
  2
AcDbVbaProject
  3
"acadvba"
 90
        0
280
               0
281
               0
  0
CLASS
  1
WIPEOUT
  2
AcDbWipeout
  3
WipeOut|AutoCAD Express Tool|expresstools@autodesk.com
 90
      127
280
               0
281
               1
  0
CLASS
  1
WIPEOUTVARIABLES
  2
AcDbWipeoutVariables
  3
WipeOut|AutoCAD Express Tool|expresstools@autodesk.com
 90
        0
280
               0
281
               0
  0
CLASS
  1
RTEXT
  2
RText
  3
RText|AutoCAD Express Tool|expresstools@autodesk.com
 90
        0
280
               0
281
               1
  0
CLASS
  1
ARCALIGNEDTEXT
  2
AcDbArcAlignedText
  3
ATEXT|AutoCAD Express Tool|expresstools@autodesk.com
 90
        0
280
               0
281
               1
  0
ENDSEC
  0
SECTION
  2
TABLES
  0
TABLE
  2
VPORT
  5
7
100
AcDbSymbolTable
 70
               1
  0
VPORT
  5
15
100
AcDbSymbolTableRecord
100
AcDbViewportTableRecord
  2
*ACTIVE
 70
               0
 10
0.0
 20
0.0
 11
1.0
 21
1.0
 12
445.50000000000045
 22
315.00000000000034
 13
0.0
 23
0.0
 14
10.0
 24
10.0
 15
10.0
 25
10.0
 16
0.0
 26
0.0
 36
1.0
 17
0.0
 27
0.0
 37
0.0
 40
630.00000000000068
 41
1.4142857142857141
 42
50.0
 43
0.0
 44
0.0
 50
0.0
 51
0.0
 71
               0
 72
             100
 73
               1
 74
               1
 75
               0
 76
               0
 77
               0
 78
               0
  0
ENDTAB
  0
TABLE
  2
LTYPE
  5
4
100
AcDbSymbolTable
 70
              24
  0
LTYPE
  5
11
100
AcDbSymbolTableRecord
100
AcDbLinetypeTableRecord
  2
ByBlock
 70
              64
  3

 72
              65
 73
               0
 40
0.0
  0
LTYPE
  5
12
100
AcDbSymbolTableRecord
100
AcDbLinetypeTableRecord
  2
ByLayer
 70
              64
  3

 72
              65
 73
               0
 40
0.0
  0
LTYPE
  5
13
100
AcDbSymbolTableRecord
100
AcDbLinetypeTableRecord
  2
Continuous
 70
              64
  3
Solid line
 72
              65
 73
               0
 40
0.0
  0
LTYPE
  5
1D
100
AcDbSymbolTableRecord
100
AcDbLinetypeTableRecord
  2
DOT
 70
              64
  3
Dot . . . . . . . . . . . . . . . . . . . . . .
 72
              65
 73
               2
 40
6.3499999999999996
 49
0.35
 74
               0
 49
-6.0
 74
               0
  0
LTYPE
  5
1E
100
AcDbSymbolTableRecord
100
AcDbLinetypeTableRecord
  2
DASHED
 70
              64
  3
Dashed __ __ __ __ __ __ __ __ __ __ __ __ __ _
 72
              65
 73
               2
 40
12.699999999999999
 49
6.3499999999999996
 74
               0
 49
-6.3499999999999996
 74
               0
  0
LTYPE
  5
1F
100
AcDbSymbolTableRecord
100
AcDbLinetypeTableRecord
  2
DASHDOT
 70
              64
  3
Dash dot __ . __ . __ . __ . __ . __ . __ . __
 72
              65
 73
               4
 40
25.399999999999999
 49
12.699999999999999
 74
               0
 49
-6.0
 74
               0
 49
0.7
 74
               0
 49
-6.0
 74
               0
  0
LTYPE
  5
20
100
AcDbSymbolTableRecord
100
AcDbLinetypeTableRecord
  2
DIVIDE
 70
              64
  3
Divide ____ . . ____ . . ____ . . ____ . . ____
 72
              65
 73
               6
 40
31.75
 49
12.699999999999999
 74
               0
 49
-6.0
 74
               0
 49
0.875
 74
               0
 49
-6.0
 74
               0
 49
0.875
 74
               0
 49
-6.0
 74
               0
  0
LTYPE
  5
21
100
AcDbSymbolTableRecord
100
AcDbLinetypeTableRecord
  2
HIDDEN
 70
              64
  3
Hidden __ __ __ __ __ __ __ __ __ __ __ __ __ _
 72
              65
 73
               2
 40
9.5250000000000004
 49
6.3499999999999996
 74
               0
 49
-3.1749999999999998
 74
               0
  0
LTYPE
  5
22
100
AcDbSymbolTableRecord
100
AcDbLinetypeTableRecord
  2
CENTER
 70
              64
  3
Center ____ _ ____ _ ____ _ ____ _ ____ _ ____
 72
              65
 73
               4
 40
50.799999999999997
 49
31.75
 74
               0
 49
-6.3499999999999996
 74
               0
 49
6.3499999999999996
 74
               0
 49
-6.3499999999999996
 74
               0
  0
LTYPE
  5
23
100
AcDbSymbolTableRecord
100
AcDbLinetypeTableRecord
  2
PHANTOM
 70
              64
  3
Phantom ______  __  __  ______  __  __  ______
 72
              65
 73
               6
 40
63.5
 49
31.75
 74
               0
 49
-6.3499999999999996
 74
               0
 49
6.3499999999999996
 74
               0
 49
-6.3499999999999996
 74
               0
 49
6.3499999999999996
 74
               0
 49
-6.3499999999999996
 74
               0
  0
LTYPE
  5
24
100
AcDbSymbolTableRecord
100
AcDbLinetypeTableRecord
  2
ACAD_ISO02W100
 70
              64
  3
ISO dash __ __ __ __ __ __ __ __ __ __ __ __ __
 72
              65
 73
               2
 40
15.0
 49
12.0
 74
               0
 49
-3.0
 74
               0
  0
LTYPE
  5
25
100
AcDbSymbolTableRecord
100
AcDbLinetypeTableRecord
  2
ACAD_ISO03W100
 70
              64
  3
ISO dash space __ __ __ __ __ __ __ __ __ __ __ __ __ __
 72
              65
 73
               2
 40
30.0
 49
12.0
 74
               0
 49
-18.0
 74
               0
  0
LTYPE
  5
26
100
AcDbSymbolTableRecord
100
AcDbLinetypeTableRecord
  2
ACAD_ISO04W100
 70
              64
  3
ISO long-dash dot ____ . ____ . ____ . ____ . _
 72
              65
 73
               4
 40
30.0
 49
24.0
 74
               0
 49
-3.0
 74
               0
 49
0.0
 74
               0
 49
-3.0
 74
               0
  0
LTYPE
  5
27
100
AcDbSymbolTableRecord
100
AcDbLinetypeTableRecord
  2
ACAD_ISO05W100
 70
              64
  3
ISO long-dash double-dot ____ .. ____ .. ____ .
 72
              65
 73
               6
 40
33.0
 49
24.0
 74
               0
 49
-3.0
 74
               0
 49
0.0
 74
               0
 49
-3.0
 74
               0
 49
0.0
 74
               0
 49
-3.0
 74
               0
  0
LTYPE
  5
28
100
AcDbSymbolTableRecord
100
AcDbLinetypeTableRecord
  2
ACAD_ISO06W100
 70
              64
  3
ISO long-dash triple-dot ____ ... ____ ... ____
 72
              65
 73
               8
 40
36.0
 49
24.0
 74
               0
 49
-3.0
 74
               0
 49
0.0
 74
               0
 49
-3.0
 74
               0
 49
0.0
 74
               0
 49
-3.0
 74
               0
 49
0.0
 74
               0
 49
-3.0
 74
               0
  0
LTYPE
  5
29
100
AcDbSymbolTableRecord
100
AcDbLinetypeTableRecord
  2
ACAD_ISO07W100
 70
              64
  3
ISO dot . . . . . . . . . . . . . . . . . . . .
 72
              65
 73
               2
 40
3.0
 49
0.0
 74
               0
 49
-3.0
 74
               0
  0
LTYPE
  5
2A
100
AcDbSymbolTableRecord
100
AcDbLinetypeTableRecord
  2
ACAD_ISO08W100
 70
              64
  3
ISO long-dash short-dash ____ __ ____ __ ____ _
 72
              65
 73
               4
 40
36.0
 49
24.0
 74
               0
 49
-3.0
 74
               0
 49
6.0
 74
               0
 49
-3.0
 74
               0
  0
LTYPE
  5
2B
100
AcDbSymbolTableRecord
100
AcDbLinetypeTableRecord
  2
ACAD_ISO09W100
 70
              64
  3
ISO long-dash double-short-dash ____ __ __ ____
 72
              65
 73
               6
 40
45.0
 49
24.0
 74
               0
 49
-3.0
 74
               0
 49
6.0
 74
               0
 49
-3.0
 74
               0
 49
6.0
 74
               0
 49
-3.0
 74
               0
  0
LTYPE
  5
2C
100
AcDbSymbolTableRecord
100
AcDbLinetypeTableRecord
  2
ACAD_ISO10W100
 70
              64
  3
ISO dash dot __ . __ . __ . __ . __ . __ . __ .
 72
              65
 73
               4
 40
18.0
 49
12.0
 74
               0
 49
-3.0
 74
               0
 49
0.0
 74
               0
 49
-3.0
 74
               0
  0
LTYPE
  5
2D
100
AcDbSymbolTableRecord
100
AcDbLinetypeTableRecord
  2
ACAD_ISO11W100
 70
              64
  3
ISO double-dash dot __ __ . __ __ . __ __ . __ 
 72
              65
 73
               6
 40
33.0
 49
12.0
 74
               0
 49
-3.0
 74
               0
 49
12.0
 74
               0
 49
-3.0
 74
               0
 49
0.0
 74
               0
 49
-3.0
 74
               0
  0
LTYPE
  5
2E
100
AcDbSymbolTableRecord
100
AcDbLinetypeTableRecord
  2
ACAD_ISO12W100
 70
              64
  3
ISO dash double-dot __ . . __ . . __ . . __ . .
 72
              65
 73
               6
 40
21.0
 49
12.0
 74
               0
 49
-3.0
 74
               0
 49
0.0
 74
               0
 49
-3.0
 74
               0
 49
0.0
 74
               0
 49
-3.0
 74
               0
  0
LTYPE
  5
2F
100
AcDbSymbolTableRecord
100
AcDbLinetypeTableRecord
  2
ACAD_ISO13W100
 70
              64
  3
ISO double-dash double-dot __ __ . . __ __ . . 
 72
              65
 73
               8
 40
36.0
 49
12.0
 74
               0
 49
-3.0
 74
               0
 49
12.0
 74
               0
 49
-3.0
 74
               0
 49
0.0
 74
               0
 49
-3.0
 74
               0
 49
0.0
 74
               0
 49
-3.0
 74
               0
  0
LTYPE
  5
30
100
AcDbSymbolTableRecord
100
AcDbLinetypeTableRecord
  2
ACAD_ISO14W100
 70
              64
  3
ISO dash triple-dot __ . . . __ . . . __ . . . 
 72
              65
 73
               8
 40
24.0
 49
12.0
 74
               0
 49
-3.0
 74
               0
 49
0.0
 74
               0
 49
-3.0
 74
               0
 49
0.0
 74
               0
 49
-3.0
 74
               0
 49
0.0
 74
               0
 49
-3.0
 74
               0
  0
LTYPE
  5
31
100
AcDbSymbolTableRecord
100
AcDbLinetypeTableRecord
  2
ACAD_ISO15W100
 70
              64
  3
ISO double-dash double-dot __ __ . . __ __ . . 
 72
              65
 73
              10
 40
39.0
 49
12.0
 74
               0
 49
-3.0
 74
               0
 49
12.0
 74
               0
 49
-3.0
 74
               0
 49
0.0
 74
               0
 49
-3.0
 74
               0
 49
0.0
 74
               0
 49
-3.0
 74
               0
 49
0.0
 74
               0
 49
-3.0
 74
               0
  0
ENDTAB
  0
TABLE
  2
LAYER
  5
2
100
AcDbSymbolTable
 70
              16
  0
LAYER
  5
14
100
AcDbSymbolTableRecord
100
AcDbLayerTableRecord
  2
0
 70
               0
 62
               7
  6
Continuous
  0
LAYER
  5
35
100
AcDbSymbolTableRecord
100
AcDbLayerTableRecord
  2
Layer00001
 70
               0
 62
               7
  6
Continuous
  0
LAYER
  5
36
100
AcDbSymbolTableRecord
100
AcDbLayerTableRecord
  2
Layer00002
 70
               0
 62
               7
  6
Continuous
  0
LAYER
  5
37
100
AcDbSymbolTableRecord
100
AcDbLayerTableRecord
  2
Layer00003
 70
               0
 62
               7
  6
Continuous
  0
LAYER
  5
38
100
AcDbSymbolTableRecord
100
AcDbLayerTableRecord
  2
Layer00004
 70
               0
 62
               7
  6
Continuous
  0
LAYER
  5
39
100
AcDbSymbolTableRecord
100
AcDbLayerTableRecord
  2
Layer00005
 70
               0
 62
               7
  6
Continuous
  0
LAYER
  5
3A
100
AcDbSymbolTableRecord
100
AcDbLayerTableRecord
  2
Layer00006
 70
               0
 62
               7
  6
Continuous
  0
LAYER
  5
3B
100
AcDbSymbolTableRecord
100
AcDbLayerTableRecord
  2
Layer00007
 70
               0
 62
               7
  6
Continuous
  0
LAYER
  5
3C
100
AcDbSymbolTableRecord
100
AcDbLayerTableRecord
  2
Layer00008
 70
               0
 62
               7
  6
Continuous
  0
LAYER
  5
3D
100
AcDbSymbolTableRecord
100
AcDbLayerTableRecord
  2
Layer00009
 70
               0
 62
               7
  6
Continuous
  0
LAYER
  5
3E
100
AcDbSymbolTableRecord
100
AcDbLayerTableRecord
  2
Layer00010
 70
               0
 62
               7
  6
Continuous
  0
LAYER
  5
3F
100
AcDbSymbolTableRecord
100
AcDbLayerTableRecord
  2
Layer00011
 70
               0
 62
               7
  6
Continuous
  0
LAYER
  5
40
100
AcDbSymbolTableRecord
100
AcDbLayerTableRecord
  2
Layer00012
 70
               0
 62
               7
  6
Continuous
  0
LAYER
  5
41
100
AcDbSymbolTableRecord
100
AcDbLayerTableRecord
  2
Layer00013
 70
               0
 62
               7
  6
Continuous
  0
LAYER
  5
42
100
AcDbSymbolTableRecord
100
AcDbLayerTableRecord
  2
Layer00014
 70
               0
 62
               7
  6
Continuous
  0
LAYER
  5
43
100
AcDbSymbolTableRecord
100
AcDbLayerTableRecord
  2
Layer00015
 70
               0
 62
               7
  6
Continuous
  0
ENDTAB
  0
TABLE
  2
STYLE
  5
3
100
AcDbSymbolTable
 70
               4
  0
STYLE
  5
17
100
AcDbSymbolTableRecord
100
AcDbTextStyleTableRecord
  2
Standard
 70
               0
 40
0.0
 41
1.0
 50
0.0
 71
               0
 42
0.0
  3
txt.shx
  4
bigfont.shx
  0
STYLE
  5
32
100
AcDbSymbolTableRecord
100
AcDbTextStyleTableRecord
  2
STANDARD_T
 70
               4
 40
0.0
 41
1.0
 50
0.0
 71
               0
 42
0.0
  3
txt.shx
  4
bigfont.shx
  0
STYLE
  5
33
100
AcDbSymbolTableRecord
100
AcDbTextStyleTableRecord
  2
FontTableH_0
 70
               0
 40
0.0
 41
1.0
 50
0.0
 71
               0
 42
0.0
  3
MS Gothic.ttf
  4

1001
ACAD
1000
MS Gothic
1071
    32817
  0
STYLE
  5
34
100
AcDbSymbolTableRecord
100
AcDbTextStyleTableRecord
  2
FontTableV_0
 70
               0
 40
0.0
 41
1.0
 50
0.0
 71
               0
 42
0.0
  3
@MS Gothic.ttf
  4

1001
ACAD
1000
@MS Gothic
1071
    32817
  0
ENDTAB
  0
TABLE
  2
VIEW
  5
5
100
AcDbSymbolTable
 70
               0
  0
ENDTAB
  0
TABLE
  2
UCS
  5
6
100
AcDbSymbolTable
 70
               0
  0
ENDTAB
  0
TABLE
  2
APPID
  5
8
100
AcDbSymbolTable
 70
               1
  0
APPID
  5
16
100
AcDbSymbolTableRecord
100
AcDbRegAppTableRecord
  2
ACAD
 70
               0
  0
ENDTAB
  0
TABLE
  2
DIMSTYLE
  5
9
100
AcDbSymbolTable
 70
               1
  0
DIMSTYLE
105
18
100
AcDbSymbolTableRecord
100
AcDbDimStyleTableRecord
  2
Standard
 70
               0
  3

  4

  5

  6

  7

 40
1.0
 41
0.18
 42
0.0625
 43
0.38
 44
0.18
 45
0.0
 46
0.0
 47
0.0
 48
0.0
 71
               0
 72
               0
 73
               1
 74
               1
 75
               0
 76
               0
 77
               0
 78
               0
140
0.18
141
0.09
142
0.0
143
25.399999999999999
144
1.0
145
0.0
146
1.0
147
0.09
170
               0
171
               2
172
               0
173
               0
174
               0
175
               0
176
               0
177
               0
178
               0
270
               2
271
               4
272
               4
273
               2
274
               2
275
               0
280
               0
281
               0
282
               0
283
               1
284
               0
285
               0
286
               0
287
               0
288
               0
340
17
  0
ENDTAB
  0
TABLE
  2
BLOCK_RECORD
  5
1
100
AcDbSymbolTable
 70
               0
  0
BLOCK_RECORD
  5
A
100
AcDbSymbolTableRecord
100
AcDbBlockTableRecord
  2
*MODEL_SPACE
  0
BLOCK_RECORD
  5
B
100
AcDbSymbolTableRecord
100
AcDbBlockTableRecord
  2
*PAPER_SPACE
  0
ENDTAB
  0
ENDSEC
  0
SECTION
  2
BLOCKS
  0
BLOCK
  5
D
100
AcDbEntity
  8
0
100
AcDbBlockBegin
  2
*MODEL_SPACE
 70
               0
 10
0.0
 20
0.0
 30
0.0
  3
*MODEL_SPACE
  1

  0
ENDBLK
  5
E
100
AcDbEntity
  8
0
100
AcDbBlockEnd
  0
BLOCK
  5
F
100
AcDbEntity
 67
               1
  8
0
100
AcDbBlockBegin
  2
*PAPER_SPACE
 70
               0
 10
0.0
 20
0.0
 30
0.0
  3
*PAPER_SPACE
  1

  0
ENDBLK
  5
10
100
AcDbEntity
 67
               1
  8
0
100
AcDbBlockEnd
  0
ENDSEC
  0
SECTION
  2
ENTITIES
  0
LINE
  5
44
100
AcDbEntity
  8
0
  6
Continuous
 62
               4
100
AcDbLine
 10
377.23670190478026
 20
386.9088395621763
 30
0.0
 11
335.2367019047802
 21
386.9088395621763
 31
0.0
  0
LINE
  5
45
100
AcDbEntity
  8
0
  6
Continuous
 62
               4
100
AcDbLine
 10
377.2367019047802
 20
336.90883956217652
 30
0.0
 11
335.2367019047802
 21
336.90883956217652
 31
0.0
  0
LINE
  5
46
100
AcDbEntity
  8
0
  6
Continuous
 62
               4
100
AcDbLine
 10
338.2367019047802
 20
386.9088395621763
 30
0.0
 11
338.2367019047802
 21
336.90883956217652
 31
0.0
  0
LINE
  5
47
100
AcDbEntity
  8
0
  6
Continuous
 62
               4
100
AcDbLine
 10
352.87360603304359
 20
418.51710234227761
 30
0.0
 11
345.97725658642582
 21
441.50493312967768
 31
0.0
  0
LINE
  5
48
100
AcDbEntity
  8
0
  6
Continuous
 62
               4
100
AcDbLine
 10
381.51261454312578
 20
392.6557972590262
 30
0.0
 11
365.1337856168941
 21
447.25189201414963
 31
0.0
  0
LINE
  5
49
100
AcDbEntity
  8
0
  6
Continuous
 62
               4
100
AcDbLine
 10
346.83930026725307
 20
438.63145428125273
 30
0.0
 11
365.99582929772134
 21
444.37841316572468
 31
0.0
  0
LINE
  5
4A
100
AcDbEntity
  8
0
  6
Continuous
 62
               4
100
AcDbLine
 10
477.007891539963
 20
422.34841100896841
 30
0.0
 11
460.91641026605862
 21
475.98668028555625
 31
0.0
  0
LINE
  5
4B
100
AcDbEntity
  8
0
  6
Continuous
 62
               4
100
AcDbLine
 10
365.99582929772134
 20
444.37841316572468
 30
0.0
 11
461.7784539468858
 21
473.11320143713141
 31
0.0
  0
LINE
  5
4C
100
AcDbEntity
  8
0
  6
Continuous
 62
               4
100
AcDbLine
 10
681.56298567130261
 20
462.83432623054915
 30
0.0
 11
678.11481104450661
 21
474.32824165320307
 31
0.0
  0
LINE
  5
4D
100
AcDbEntity
  8
0
  6
Continuous
 62
               4
100
AcDbLine
 10
679.83890222158004
 20
510.34251032288506
 30
0.0
 11
665.47150430355134
 21
506.03229094747661
 31
0.0
  0
LINE
  5
4E
100
AcDbEntity
  8
0
  6
Continuous
 62
               4
100
AcDbLine
 10
676.96541950224105
 20
478.15954679408782
 30
0.0
 11
668.34498315921485
 21
506.89433460417553
 31
0.0
  0
LINE
  5
4F
100
AcDbEntity
  8
0
  6
Continuous
 62
               4
100
AcDbLine
 10
356.2264193460112
 20
215.77011361957648
 30
0.0
 11
337.9189070758012
 21
247.47965503177085
 31
0.0
  0
LINE
  5
50
100
AcDbEntity
  8
0
  6
Continuous
 62
               4
100
AcDbLine
 10
337.9189070758012
 20
247.47965503177085
 30
0.0
 11
312.62557065372977
 21
247.47965503177085
 31
0.0
  0
LINE
  5
51
100
AcDbEntity
  8
0
  6
Continuous
 62
               4
100
AcDbLine
 10
356.2264193460112
 20
215.77011361957648
 30
0.0
 11
350.44133085883232
 21
222.66451360764728
 31
0.0
  0
LINE
  5
52
100
AcDbEntity
  8
0
  6
Continuous
 62
               4
100
AcDbLine
 10
356.2264193460112
 20
215.77011361957648
 30
0.0
 11
353.14823805608017
 21
224.22734720664965
 31
0.0
  0
LINE
  5
53
100
AcDbEntity
  8
0
  6
Continuous
 62
               4
100
AcDbLine
 10
383.2367019047802
 20
361.90883956217641
 30
0.0
 11
350.67686081245074
 21
305.51354050389295
 31
0.0
  0
LINE
  5
54
100
AcDbEntity
  8
0
  6
Continuous
 62
               4
100
AcDbLine
 10
350.67686081245074
 20
305.51354050389295
 30
0.0
 11
301.30847277677628
 21
305.51354050389449
 31
0.0
  0
LINE
  5
55
100
AcDbEntity
  8
0
  6
Continuous
 62
               4
100
AcDbLine
 10
383.2367019047802
 20
361.90883956217641
 30
0.0
 11
380.15852061484918
 21
353.45160597510323
 31
0.0
  0
LINE
  5
56
100
AcDbEntity
  8
0
  6
Continuous
 62
               4
100
AcDbLine
 10
383.2367019047802
 20
361.90883956217641
 30
0.0
 11
377.45161341760138
 21
355.01443957410555
 31
0.0
  0
LINE
  5
57
100
AcDbEntity
  8
0
  6
Continuous
 62
               4
100
AcDbLine
 10
504.08599832202822
 20
145.81658625636857
 30
0.0
 11
475.86077614273916
 21
174.04180843565769
 31
0.0
  0
LINE
  5
58
100
AcDbEntity
  8
0
  6
Continuous
 62
               4
100
AcDbLine
 10
475.86077614273916
 20
174.04180843565769
 30
0.0
 11
425.64703322671642
 21
174.04180843565672
 31
0.0
  0
LINE
  5
59
100
AcDbEntity
  8
0
  6
Continuous
 62
               4
100
AcDbLine
 10
504.08599832202822
 20
145.81658625636857
 30
0.0
 11
496.71362992342722
 21
150.97877418352806
 31
0.0
  0
LINE
  5
5A
100
AcDbEntity
  8
0
  6
Continuous
 62
               4
100
AcDbLine
 10
504.08599832202822
 20
145.81658625636857
 30
0.0
 11
498.92381039486878
 21
153.18895465496956
 31
0.0
  0
LINE
  5
5B
100
AcDbEntity
  8
0
  6
Continuous
 62
               4
100
AcDbLine
 10
648.28131109530887
 20
222.43225920609478
 30
0.0
 11
676.38128183355059
 21
271.10283621592822
 31
0.0
  0
LINE
  5
5C
100
AcDbEntity
  8
0
  6
Continuous
 62
               4
100
AcDbLine
 10
676.38128183355059
 20
271.10283621592822
 30
0.0
 11
726.62562378282394
 21
271.10283621592822
 31
0.0
  0
LINE
  5
5D
100
AcDbEntity
  8
0
  6
Continuous
 62
               4
100
AcDbLine
 10
648.28131109530887
 20
222.43225920609478
 30
0.0
 11
651.35949238523983
 21
230.88949279316802
 31
0.0
  0
LINE
  5
5E
100
AcDbEntity
  8
0
  6
Continuous
 62
               4
100
AcDbLine
 10
648.28131109530887
 20
222.43225920609478
 30
0.0
 11
654.06639958248763
 21
229.32665919416559
 31
0.0
  0
LINE
  5
5F
100
AcDbEntity
  8
0
  6
Continuous
 62
               4
100
AcDbLine
 10
651.39658591574516
 20
354.11819556677824
 30
0.0
 11
680.1539499565971
 21
304.30897995626822
 31
0.0
  0
LINE
  5
60
100
AcDbEntity
  8
0
  6
Continuous
 62
               4
100
AcDbLine
 10
680.1539499565971
 20
304.30897995626822
 30
0.0
 11
741.94623815685804
 21
304.30897995626822
 31
0.0
  0
LINE
  5
61
100
AcDbEntity
  8
0
  6
Continuous
 62
               4
100
AcDbLine
 10
651.39658591574516
 20
354.11819556677824
 30
0.0
 11
657.18167440292393
 21
347.22379557870744
 31
0.0
  0
LINE
  5
62
100
AcDbEntity
  8
0
  6
Continuous
 62
               4
100
AcDbLine
 10
651.39658591574516
 20
354.11819556677824
 30
0.0
 11
654.47476720567613
 21
345.66096197970512
 31
0.0
  0
LINE
  5
63
100
AcDbEntity
  8
0
  6
Continuous
 62
               4
100
AcDbLine
 10
653.49656704302788
 20
435.24572415313122
 30
0.0
 11
715.62667453869574
 21
327.63322129091819
 31
0.0
  0
LINE
  5
64
100
AcDbEntity
  8
0
  6
Continuous
 62
               4
100
AcDbLine
 10
715.62667453869574
 20
327.63322129091819
 30
0.0
 11
752.5267472908954
 21
327.63322129091819
 31
0.0
  0
LINE
  5
65
100
AcDbEntity
  8
0
  6
Continuous
 62
               4
100
AcDbLine
 10
653.49656704302788
 20
435.24572415313122
 30
0.0
 11
659.28165553020665
 21
428.35132416506048
 31
0.0
  0
LINE
  5
66
100
AcDbEntity
  8
0
  6
Continuous
 62
               4
100
AcDbLine
 10
653.49656704302788
 20
435.24572415313122
 30
0.0
 11
656.57474833295885
 21
426.7884905660581
 31
0.0
  0
LINE
  5
67
100
AcDbEntity
  8
0
  6
Continuous
 62
               4
100
AcDbLine
 10
539.10693621484631
 20
462.76377845646851
 30
0.0
 11
519.1684971465221
 21
497.2981679464221
 31
0.0
  0
LINE
  5
68
100
AcDbEntity
  8
0
  6
Continuous
 62
               4
100
AcDbLine
 10
519.1684971465221
 20
497.2981679464221
 30
0.0
 11
342.52675847141495
 21
497.2981679464221
 31
0.0
  0
LINE
  5
69
100
AcDbEntity
  8
0
  6
Continuous
 62
               4
100
AcDbLine
 10
539.10693621484631
 20
462.76377845646851
 30
0.0
 11
533.32184772766743
 21
469.65817844453926
 31
0.0
  0
LINE
  5
6A
100
AcDbEntity
  8
0
  6
Continuous
 62
               4
100
AcDbLine
 10
539.10693621484631
 20
462.76377845646851
 30
0.0
 11
536.02875492491535
 21
471.22101204354175
 31
0.0
  0
LINE
  5
6B
100
AcDbEntity
  8
0
  6
Continuous
 62
               4
100
AcDbLine
 10
601.76201002416565
 20
445.65031585843775
 30
0.0
 11
557.60525505402995
 21
522.13205896408203
 31
0.0
  0
LINE
  5
6C
100
AcDbEntity
  8
0
  6
Continuous
 62
               4
100
AcDbLine
 10
557.60525505402995
 20
522.13205896408203
 30
0.0
 11
521.17968740982019
 21
522.13205896408203
 31
0.0
  0
LINE
  5
6D
100
AcDbEntity
  8
0
  6
Continuous
 62
               4
100
AcDbLine
 10
601.76201002416565
 20
445.65031585843775
 30
0.0
 11
595.97692153698677
 21
452.5447158465085
 31
0.0
  0
LINE
  5
6E
100
AcDbEntity
  8
0
  6
Continuous
 62
               4
100
AcDbLine
 10
601.76201002416565
 20
445.65031585843775
 30
0.0
 11
598.68382873423468
 21
454.10754944551087
 31
0.0
  0
LINE
  5
6F
100
AcDbEntity
  8
0
  6
Continuous
 62
               4
100
AcDbLine
 10
635.03647446379023
 20
462.44877132987921
 30
0.0
 11
586.76607439644181
 21
546.05555674820266
 31
0.0
  0
LINE
  5
70
100
AcDbEntity
  8
0
  6
Continuous
 62
               4
100
AcDbLine
 10
586.76607439644181
 20
546.05555674820266
 30
0.0
 11
512.59240672358351
 21
546.05555674819971
 31
0.0
  0
LINE
  5
71
100
AcDbEntity
  8
0
  6
Continuous
 62
               4
100
AcDbLine
 10
635.03647446379023
 20
462.44877132987921
 30
0.0
 11
629.25138597661146
 21
469.34317131794995
 31
0.0
  0
LINE
  5
72
100
AcDbEntity
  8
0
  6
Continuous
 62
               4
100
AcDbLine
 10
635.03647446379023
 20
462.44877132987921
 30
0.0
 11
631.95829317385926
 21
470.90600491695221
 31
0.0
  0
LINE
  5
73
100
AcDbEntity
  8
0
  6
Continuous
 62
               6
100
AcDbLine
 10
706.84959960114077
 20
441.18745218455075
 30
0.0
 11
418.96361870381759
 21
354.82165791535391
 31
0.0
  0
LINE
  5
74
100
AcDbEntity
  8
0
  6
Continuous
 62
               6
100
AcDbLine
 10
418.96361870381759
 20
354.82165791535391
 30
0.0
 11
444.25023263365591
 21
270.53294481589256
 31
0.0
  0
LINE
  5
75
100
AcDbEntity
  8
0
  6
Continuous
 62
               6
100
AcDbLine
 10
416.29426939287464
 20
358.7189200766889
 30
0.0
 11
545.01625049014888
 21
397.33558538026301
 31
0.0
  0
LINE
  5
76
100
AcDbEntity
  8
0
  6
Continuous
 62
               6
100
AcDbLine
 10
418.96361870381759
 20
354.82165791535391
 30
0.0
 11
546.30931597519748
 21
393.02536709676775
 31
0.0
  0
LINE
  5
77
100
AcDbEntity
  8
0
  6
Continuous
 62
               6
100
AcDbLine
 10
546.30931597519748
 20
393.02536709676775
 30
0.0
 11
545.01625049014888
 21
397.33558538026301
 31
0.0
  0
LINE
  5
78
100
AcDbEntity
  8
0
  6
Continuous
 62
               6
100
AcDbLine
 10
732.13621353097903
 20
356.8987390850894
 30
0.0
 11
444.25023263365591
 21
270.53294481589256
 31
0.0
  0
LINE
  5
79
100
AcDbEntity
  8
0
  6
Continuous
 62
               6
100
AcDbLine
 10
596.83646131608066
 20
306.91253756260045
 30
0.0
 11
624.42185833044971
 21
214.96121418136983
 31
0.0
  0
LINE
  5
7A
100
AcDbEntity
  8
0
  6
Continuous
 62
               6
100
AcDbLine
 10
642.23742723556325
 20
322.62088864022718
 30
0.0
 11
598.17741811539031
 21
309.40288590417532
 31
0.0
  0
LINE
  5
7B
100
AcDbEntity
  8
0
  6
Continuous
 62
               6
100
AcDbLine
 10
670.97221579219786
 20
226.83826011811203
 30
0.0
 11
626.91220667202481
 21
213.62025738206017
 31
0.0
  0
LINE
  5
7C
100
AcDbEntity
  8
0
  6
Continuous
 62
               6
100
AcDbLine
 10
644.72777557713823
 20
321.27993184091775
 30
0.0
 11
649.90003751733241
 21
304.03905870693694
 31
0.0
  0
LINE
  5
7D
100
AcDbEntity
  8
0
  6
Continuous
 62
               6
100
AcDbLine
 10
647.69703706132384
 20
303.3781585701343
 30
0.0
 11
642.61097948679947
 21
320.33168381854881
 31
0.0
  0
LINE
  5
7E
100
AcDbEntity
  8
0
  6
Continuous
 62
               6
100
AcDbLine
 10
642.61097948679947
 20
320.33168381854881
 30
0.0
 11
599.12566613775925
 21
307.28608981383655
 31
0.0
  0
LINE
  5
7F
100
AcDbEntity
  8
0
  6
Continuous
 62
               6
100
AcDbLine
 10
599.12566613775925
 20
307.28608981383655
 30
0.0
 11
626.53865442078848
 21
215.90946220373877
 31
0.0
  0
LINE
  5
80
100
AcDbEntity
  8
0
  6
Continuous
 62
               6
100
AcDbLine
 10
626.53865442078848
 20
215.90946220373877
 30
0.0
 11
670.02396776982903
 21
228.9550562084508
 31
0.0
  0
LINE
  5
81
100
AcDbEntity
  8
0
  6
Continuous
 62
               6
100
AcDbLine
 10
670.02396776982903
 20
228.9550562084508
 30
0.0
 11
664.93791019530465
 21
245.90858145686508
 31
0.0
  0
LINE
  5
82
100
AcDbEntity
  8
0
  6
Continuous
 62
               6
100
AcDbLine
 10
647.69703706132384
 20
303.3781585701343
 30
0.0
 11
649.90003751733241
 21
304.03905870693694
 31
0.0
  0
LINE
  5
83
100
AcDbEntity
  8
0
  6
Continuous
 62
               6
100
AcDbLine
 10
664.93791019530465
 20
245.90858145686508
 30
0.0
 11
667.14091065131322
 21
246.56948159366794
 31
0.0
  0
LINE
  5
84
100
AcDbEntity
  8
0
  6
Continuous
 62
               6
100
AcDbLine
 10
667.14091065131322
 20
246.56948159366772
 30
0.0
 11
672.31317259150751
 21
229.3286084596869
 31
0.0
  0
LINE
  5
85
100
AcDbEntity
  8
0
  6
DOT
 62
               6
100
AcDbLine
 10
605.84002839715947
 20
311.70166898870622
 30
0.0
 11
579.40402292505564
 21
399.82168722905209
 31
0.0
  0
LINE
  5
86
100
AcDbEntity
  8
0
  6
DOT
 62
               6
100
AcDbLine
 10
634.57481695379408
 20
320.32210555569651
 30
0.0
 11
608.13881148169025
 21
408.44212379604238
 31
0.0
  0
LINE
  5
87
100
AcDbEntity
  8
0
  6
DOT
 62
               6
100
AcDbLine
 10
608.13881148169025
 20
408.44212379604238
 30
0.0
 11
579.40402292505564
 21
399.82168722905209
 31
0.0
  0
LINE
  5
88
100
AcDbEntity
  8
0
  6
Continuous
 62
               4
100
AcDbLine
 10
583.48048955320041
 20
424.5145890012414
 30
0.0
 11
585.74483293321964
 21
416.9667777345108
 31
0.0
  0
LINE
  5
89
100
AcDbEntity
  8
0
  6
Continuous
 62
               4
100
AcDbLine
 10
591.14309983496969
 20
426.8133720857723
 30
0.0
 11
593.40744321498903
 21
419.26556081904147
 31
0.0
  0
LINE
  5
8A
100
AcDbEntity
  8
0
  6
DOT
 62
               4
100
AcDbLine
 10
602.04703630768358
 20
397.42712151599932
 30
0.0
 11
590.55312088502978
 21
393.9789468892032
 31
0.0
  0
LINE
  5
8B
100
AcDbEntity
  8
0
  6
DOT
 62
               4
100
AcDbLine
 10
586.91338100118935
 20
399.15120882939738
 30
0.0
 11
588.43574986885756
 21
394.07664593717033
 31
0.0
  0
LINE
  5
8C
100
AcDbEntity
  8
0
  6
DOT
 62
               4
100
AcDbLine
 10
602.23860156472801
 20
403.74877499845871
 30
0.0
 11
603.76097043239611
 21
398.67421210623189
 31
0.0
  0
LINE
  5
8D
100
AcDbEntity
  8
0
  6
DOT
 62
               4
100
AcDbLine
 10
588.43574986885756
 20
394.07664593717033
 30
0.0
 11
590.55312088502978
 21
393.9789468892032
 31
0.0
  0
LINE
  5
8E
100
AcDbEntity
  8
0
  6
DOT
 62
               4
100
AcDbLine
 10
602.04703630768358
 20
397.42712151599932
 30
0.0
 11
603.76097043239588
 21
398.67421210623189
 31
0.0
  0
LINE
  5
8F
100
AcDbEntity
  8
0
  6
DOT
 62
               4
100
AcDbLine
 10
598.40729642384326
 20
402.59938345619349
 30
0.0
 11
599.93417932554246
 21
397.50977378386284
 31
0.0
  0
LINE
  5
90
100
AcDbEntity
  8
0
  6
DOT
 62
               4
100
AcDbLine
 10
590.74468614207399
 20
400.30060037166282
 30
0.0
 11
592.27156904377307
 21
395.21099069933217
 31
0.0
  0
LINE
  5
91
100
AcDbEntity
  8
0
  6
Continuous
 62
               4
100
AcDbLine
 10
595.32309578543118
 20
419.84025659017408
 30
0.0
 11
583.82918036277738
 21
416.39208196337796
 31
0.0
  0
LINE
  5
92
100
AcDbEntity
  8
0
  6
Continuous
 62
               4
100
AcDbLine
 10
583.63761510573318
 20
410.07042848091857
 30
0.0
 11
582.11524623806508
 21
415.14499137314539
 31
0.0
  0
LINE
  5
93
100
AcDbEntity
  8
0
  6
Continuous
 62
               4
100
AcDbLine
 10
598.96283566927173
 20
414.6679946499799
 30
0.0
 11
597.44046680160363
 21
419.74255754220695
 31
0.0
  0
LINE
  5
94
100
AcDbEntity
  8
0
  6
Continuous
 62
               4
100
AcDbLine
 10
582.11524623806508
 20
415.14499137314539
 30
0.0
 11
583.82918036277738
 21
416.39208196337819
 31
0.0
  0
LINE
  5
95
100
AcDbEntity
  8
0
  6
Continuous
 62
               4
100
AcDbLine
 10
595.32309578543129
 20
419.84025659017408
 30
0.0
 11
597.44046680160352
 21
419.74255754220695
 31
0.0
  0
LINE
  5
96
100
AcDbEntity
  8
0
  6
Continuous
 62
               4
100
AcDbLine
 10
595.13153052838697
 20
413.51860310771468
 30
0.0
 11
593.60464762668789
 21
418.60821278004511
 31
0.0
  0
LINE
  5
97
100
AcDbEntity
  8
0
  6
Continuous
 62
               4
100
AcDbLine
 10
587.4689202466177
 20
411.21982002318379
 30
0.0
 11
585.94203734491862
 21
416.30942969551444
 31
0.0
  0
LINE
  5
98
100
AcDbEntity
  8
0
  6
Continuous
 62
               4
100
AcDbLine
 10
583.63761510573318
 20
410.07042848091857
 30
0.0
 11
598.96283566927173
 21
414.6679946499799
 31
0.0
  0
LINE
  5
99
100
AcDbEntity
  8
0
  6
Continuous
 62
               4
100
AcDbLine
 10
578.25463138279019
 20
403.65299236993684
 30
0.0
 11
577.59373124598756
 21
405.85599282594541
 31
0.0
  0
LINE
  5
9A
100
AcDbEntity
  8
0
  6
Continuous
 62
               4
100
AcDbLine
 10
578.25463138279019
 20
403.65299236993684
 30
0.0
 11
606.98941993942492
 21
412.2734289369269
 31
0.0
  0
LINE
  5
9B
100
AcDbEntity
  8
0
  6
Continuous
 62
               4
100
AcDbLine
 10
577.59373124598756
 20
405.85599282594541
 30
0.0
 11
606.3285198026224
 21
414.4764293929357
 31
0.0
  0
LINE
  5
9C
100
AcDbEntity
  8
0
  6
Continuous
 62
               4
100
AcDbLine
 10
582.0841425082765
 20
408.95794284680102
 30
0.0
 11
581.06285641388649
 21
407.54317423119556
 31
0.0
  0
LINE
  5
9D
100
AcDbEntity
  8
0
  6
Continuous
 62
               4
100
AcDbLine
 10
606.98941993942492
 20
412.2734289369269
 30
0.0
 11
606.3285198026224
 21
414.4764293929357
 31
0.0
  0
LINE
  5
9E
100
AcDbEntity
  8
0
  6
Continuous
 62
               4
100
AcDbLine
 10
600.87214892079089
 20
414.59434477055498
 30
0.0
 11
602.50355398066085
 21
413.97538350122778
 31
0.0
  0
LINE
  5
9F
100
AcDbEntity
  8
0
  6
Continuous
 62
               4
100
AcDbLine
 10
579.97871869618825
 20
403.12618791306505
 30
0.0
 11
605.84002839715947
 21
410.88458082335643
 31
0.0
  0
LINE
  5
A0
100
AcDbEntity
  8
0
  6
DOT
 62
               4
100
AcDbLine
 10
596.74067868755856
 20
408.15477591047608
 30
0.0
 11
598.40729642384338
 21
402.59938345619349
 31
0.0
  0
LINE
  5
A1
100
AcDbEntity
  8
0
  6
DOT
 62
               4
100
AcDbLine
 10
589.07806840578928
 20
405.85599282594541
 30
0.0
 11
590.74468614207399
 21
400.30060037166282
 31
0.0
  0
LINE
  5
A2
100
AcDbEntity
  8
0
  6
DOT
 62
               4
100
AcDbLine
 10
586.91338100118935
 20
399.15120882939738
 30
0.0
 11
602.23860156472801
 21
403.74877499845871
 31
0.0
  0
LINE
  5
A3
100
AcDbEntity
  8
0
  6
Continuous
 62
               4
100
AcDbLine
 10
591.14309983496969
 20
426.8133720857723
 30
0.0
 11
583.48048955320041
 21
424.5145890012414
 31
0.0
  0
LINE
  5
A4
100
AcDbEntity
  8
0
  6
Continuous
 62
               4
100
AcDbLine
 10
436.3361696804771
 20
366.53444483462329
 30
0.0
 11
445.87429383888252
 21
369.53847338622575
 31
0.0
  0
LINE
  5
A5
100
AcDbEntity
  8
0
  6
Continuous
 62
               4
100
AcDbLine
 10
451.63802349196891
 20
326.27151809138047
 30
0.0
 11
456.40708557117165
 21
327.77353236718147
 31
0.0
  0
LINE
  5
A6
100
AcDbEntity
  8
0
  6
Continuous
 62
               4
100
AcDbLine
 10
439.56182871452717
 20
364.61477720817049
 30
0.0
 11
444.33089079372985
 21
366.11679148397172
 31
0.0
  0
LINE
  5
A7
100
AcDbEntity
  8
0
  6
Continuous
 62
               4
100
AcDbLine
 10
451.63802349196891
 20
326.27151809138047
 30
0.0
 11
439.56182871452717
 21
364.61477720817049
 31
0.0
  0
LINE
  5
A8
100
AcDbEntity
  8
0
  6
Continuous
 62
               4
100
AcDbLine
 10
456.40708557117165
 20
327.77353236718147
 30
0.0
 11
444.33089079372985
 21
366.11679148397172
 31
0.0
  0
LINE
  5
A9
100
AcDbEntity
  8
0
  6
Continuous
 62
               4
100
AcDbLine
 10
439.56182871452717
 20
364.61477720817049
 30
0.0
 11
436.3361696804771
 21
366.53444483462329
 31
0.0
  0
LINE
  5
AA
100
AcDbEntity
  8
0
  6
Continuous
 62
               4
100
AcDbLine
 10
444.33089079372985
 20
366.11679148397172
 30
0.0
 11
445.87429383888252
 21
369.53847338622575
 31
0.0
  0
LINE
  5
AB
100
AcDbEntity
  8
0
  6
Continuous
 62
               4
100
AcDbLine
 10
451.63802349196891
 20
326.27151809138047
 30
0.0
 11
454.62336024189062
 21
325.11490039759985
 31
0.0
  0
LINE
  5
AC
100
AcDbEntity
  8
0
  6
Continuous
 62
               4
100
AcDbLine
 10
454.62336024189062
 20
325.11490039759985
 30
0.0
 11
456.40708557117165
 21
327.77353236718147
 31
0.0
  0
LINE
  5
AD
100
AcDbEntity
  8
0
  6
Continuous
 62
               4
100
AcDbLine
 10
455.99715961973266
 20
329.07509277295469
 30
0.0
 11
451.49294318276299
 21
326.73216417991659
 31
0.0
  0
LINE
  5
AE
100
AcDbEntity
  8
0
  6
Continuous
 62
               4
100
AcDbLine
 10
455.69212256631641
 20
330.04361928274614
 30
0.0
 11
451.18790612934674
 21
327.70069068970804
 31
0.0
  0
LINE
  5
AF
100
AcDbEntity
  8
0
  6
Continuous
 62
               4
100
AcDbLine
 10
455.38708551290028
 20
331.01214579253781
 30
0.0
 11
450.88286907593061
 21
328.66921719949949
 31
0.0
  0
LINE
  5
B0
100
AcDbEntity
  8
0
  6
Continuous
 62
               4
100
AcDbLine
 10
455.08204845948421
 20
331.98067230232925
 30
0.0
 11
450.57783202251449
 21
329.63774370929093
 31
0.0
  0
LINE
  5
B1
100
AcDbEntity
  8
0
  6
Continuous
 62
               4
100
AcDbLine
 10
454.77701140606797
 20
332.9491988121207
 30
0.0
 11
450.2727949690983
 21
330.60627021908238
 31
0.0
  0
LINE
  5
B2
100
AcDbEntity
  8
0
  6
Continuous
 62
               4
100
AcDbLine
 10
454.47197435265184
 20
333.91772532191237
 30
0.0
 11
449.96775791568217
 21
331.57479672887405
 31
0.0
  0
LINE
  5
B3
100
AcDbEntity
  8
0
  6
Continuous
 62
               4
100
AcDbLine
 10
454.1669372992356
 20
334.88625183170382
 30
0.0
 11
449.66272086226593
 21
332.54332323866549
 31
0.0
  0
LINE
  5
B4
100
AcDbEntity
  8
0
  6
Continuous
 62
               4
100
AcDbLine
 10
453.86190024581936
 20
335.85477834149549
 30
0.0
 11
449.3576838088498
 21
333.51184974845717
 31
0.0
  0
LINE
  5
B5
100
AcDbEntity
  8
0
  6
Continuous
 62
               4
100
AcDbLine
 10
453.55686319240323
 20
336.82330485128693
 30
0.0
 11
449.05264675543356
 21
334.48037625824884
 31
0.0
  0
LINE
  5
B6
100
AcDbEntity
  8
0
  6
Continuous
 62
               4
100
AcDbLine
 10
453.25182613898704
 20
337.79183136107838
 30
0.0
 11
448.74760970201731
 21
335.44890276804028
 31
0.0
  0
LINE
  5
B7
100
AcDbEntity
  8
0
  6
Continuous
 62
               4
100
AcDbLine
 10
452.94678908557091
 20
338.76035787087005
 30
0.0
 11
448.44257264860124
 21
336.41742927783173
 31
0.0
  0
LINE
  5
B8
100
AcDbEntity
  8
0
  6
Continuous
 62
               4
100
AcDbLine
 10
452.64175203215473
 20
339.7288843806615
 30
0.0
 11
448.13753559518511
 21
337.38595578762317
 31
0.0
  0
LINE
  5
B9
100
AcDbEntity
  8
0
  6
Continuous
 62
               4
100
AcDbLine
 10
452.33671497873866
 20
340.69741089045294
 30
0.0
 11
447.83249854176893
 21
338.35448229741485
 31
0.0
  0
LINE
  5
BA
100
AcDbEntity
  8
0
  6
Continuous
 62
               4
100
AcDbLine
 10
452.03167792532236
 20
341.66593740024462
 30
0.0
 11
447.52746148835269
 21
339.32300880720629
 31
0.0
  0
LINE
  5
BB
100
AcDbEntity
  8
0
  6
Continuous
 62
               4
100
AcDbLine
 10
451.72664087190623
 20
342.63446391003606
 30
0.0
 11
447.22242443493661
 21
340.29153531699774
 31
0.0
  0
LINE
  5
BC
100
AcDbEntity
  8
0
  6
Continuous
 62
               4
100
AcDbLine
 10
451.42160381849004
 20
343.60299041982751
 30
0.0
 11
446.91738738152031
 21
341.26006182678941
 31
0.0
  0
LINE
  5
BD
100
AcDbEntity
  8
0
  6
Continuous
 62
               4
100
AcDbLine
 10
451.11656676507386
 20
344.57151692961918
 30
0.0
 11
446.61235032810424
 21
342.22858833658086
 31
0.0
  0
LINE
  5
BE
100
AcDbEntity
  8
0
  6
Continuous
 62
               4
100
AcDbLine
 10
450.81152971165778
 20
345.54004343941085
 30
0.0
 11
446.30731327468811
 21
343.1971148463723
 31
0.0
  0
LINE
  5
BF
100
AcDbEntity
  8
0
  6
Continuous
 62
               4
100
AcDbLine
 10
450.5064926582416
 20
346.50856994920207
 30
0.0
 11
446.00227622127181
 21
344.16564135616397
 31
0.0
  0
LINE
  5
C0
100
AcDbEntity
  8
0
  6
Continuous
 62
               4
100
AcDbLine
 10
450.20145560482541
 20
347.47709645899374
 30
0.0
 11
445.69723916785574
 21
345.13416786595542
 31
0.0
  0
LINE
  5
C1
100
AcDbEntity
  8
0
  6
Continuous
 62
               4
100
AcDbLine
 10
449.89641855140923
 20
348.44562296878519
 30
0.0
 11
445.39220211443961
 21
346.10269437574709
 31
0.0
  0
LINE
  5
C2
100
AcDbEntity
  8
0
  6
Continuous
 62
               4
100
AcDbLine
 10
449.5913814979931
 20
349.41414947857663
 30
0.0
 11
445.08716506102337
 21
347.07122088553854
 31
0.0
  0
LINE
  5
C3
100
AcDbEntity
  8
0
  6
Continuous
 62
               4
100
AcDbLine
 10
449.28634444457697
 20
350.38267598836831
 30
0.0
 11
444.78212800760713
 21
348.03974739532998
 31
0.0
  0
LINE
  5
C4
100
AcDbEntity
  8
0
  6
Continuous
 62
               4
100
AcDbLine
 10
448.98130739116073
 20
351.35120249815975
 30
0.0
 11
444.477090954191
 21
349.00827390512143
 31
0.0
  0
LINE
  5
C5
100
AcDbEntity
  8
0
  6
Continuous
 62
               4
100
AcDbLine
 10
448.67627033774448
 20
352.31972900795142
 30
0.0
 11
444.17205390077493
 21
349.9768004149131
 31
0.0
  0
LINE
  5
C6
100
AcDbEntity
  8
0
  6
Continuous
 62
               4
100
AcDbLine
 10
448.3712332843283
 20
353.28825551774287
 30
0.0
 11
443.86701684735868
 21
350.94532692470455
 31
0.0
  0
LINE
  5
C7
100
AcDbEntity
  8
0
  6
Continuous
 62
               4
100
AcDbLine
 10
448.06619623091228
 20
354.25678202753431
 30
0.0
 11
443.56197979394256
 21
351.91385343449599
 31
0.0
  0
LINE
  5
C8
100
AcDbEntity
  8
0
  6
Continuous
 62
               4
100
AcDbLine
 10
447.7611591774961
 20
355.22530853732599
 30
0.0
 11
443.25694274052631
 21
352.88237994428766
 31
0.0
  0
LINE
  5
C9
100
AcDbEntity
  8
0
  6
Continuous
 62
               4
100
AcDbLine
 10
447.45612212407991
 20
356.19383504711743
 30
0.0
 11
442.95190568711018
 21
353.85090645407911
 31
0.0
  0
LINE
  5
CA
100
AcDbEntity
  8
0
  6
Continuous
 62
               4
100
AcDbLine
 10
447.15108507066373
 20
357.16236155690888
 30
0.0
 11
442.64686863369411
 21
354.81943296387078
 31
0.0
  0
LINE
  5
CB
100
AcDbEntity
  8
0
  6
Continuous
 62
               4
100
AcDbLine
 10
446.84604801724754
 20
358.13088806670032
 30
0.0
 11
442.34183158027787
 21
355.78795947366223
 31
0.0
  0
LINE
  5
CC
100
AcDbEntity
  8
0
  6
Continuous
 62
               4
100
AcDbLine
 10
446.54101096383135
 20
359.09941457649199
 30
0.0
 11
442.03679452686168
 21
356.75648598345367
 31
0.0
  0
LINE
  5
CD
100
AcDbEntity
  8
0
  6
Continuous
 62
               4
100
AcDbLine
 10
446.23597391041523
 20
360.06794108628344
 30
0.0
 11
441.73175747344555
 21
357.72501249324512
 31
0.0
  0
LINE
  5
CE
100
AcDbEntity
  8
0
  6
Continuous
 62
               4
100
AcDbLine
 10
445.93093685699904
 20
361.03646759607489
 30
0.0
 11
441.42672042002937
 21
358.69353900303679
 31
0.0
  0
LINE
  5
CF
100
AcDbEntity
  8
0
  6
Continuous
 62
               4
100
AcDbLine
 10
445.62589980358285
 20
362.00499410586656
 30
0.0
 11
441.12168336661318
 21
359.66206551282824
 31
0.0
  0
LINE
  5
D0
100
AcDbEntity
  8
0
  6
Continuous
 62
               4
100
AcDbLine
 10
445.32086275016673
 20
362.973520615658
 30
0.0
 11
442.92653374238063
 21
361.72807826803034
 31
0.0
  0
LINE
  5
D1
100
AcDbEntity
  8
0
  6
Continuous
 62
               6
100
AcDbLine
 10
420.49614076017139
 20
384.51427275720977
 30
0.0
 11
391.76135220353683
 21
375.89383619021953
 31
0.0
  0
LINE
  5
D2
100
AcDbEntity
  8
0
  6
Continuous
 62
               6
100
AcDbLine
 10
419.69156668058559
 20
383.02006375226466
 30
0.0
 11
392.10616966621649
 21
374.74444464795408
 31
0.0
  0
LINE
  5
D3
100
AcDbEntity
  8
0
  6
Continuous
 62
               6
100
AcDbLine
 10
426.90401229169652
 20
363.15470098545904
 30
0.0
 11
420.49614076017139
 21
384.51427275720977
 31
0.0
  0
LINE
  5
D4
100
AcDbEntity
  8
0
  6
Continuous
 62
               6
100
AcDbLine
 10
426.09943838653703
 20
361.6604913990933
 30
0.0
 11
419.69156668058559
 21
383.02006375226466
 31
0.0
  0
LINE
  5
D5
100
AcDbEntity
  8
0
  6
DOT
 62
               4
100
AcDbLine
 10
503.91463704033964
 20
289.47629678878877
 30
0.0
 11
477.62231283129944
 21
377.11737748558915
 31
0.0
  0
LINE
  5
D6
100
AcDbEntity
  8
0
  6
Continuous
 62
               4
100
AcDbLine
 10
477.62231283129944
 20
377.11737748558915
 30
0.0
 11
471.15697808577619
 21
398.66849330400004
 31
0.0
  0
LINE
  5
D7
100
AcDbEntity
  8
0
  6
Continuous
 62
               6
100
AcDbLine
 10
455.98361395035641
 20
370.6257605456982
 30
0.0
 11
455.63879648767676
 21
371.77515208796387
 31
0.0
  0
LINE
  5
D8
100
AcDbEntity
  8
0
  6
Continuous
 62
               6
100
AcDbLine
 10
426.90401229169652
 20
363.15470098545904
 30
0.0
 11
455.63879648767676
 21
371.77515208796387
 31
0.0
  0
LINE
  5
D9
100
AcDbEntity
  8
0
  6
Continuous
 62
               6
100
AcDbLine
 10
392.10616966621649
 20
374.74444464795408
 30
0.0
 11
391.76135220353683
 21
375.89383619021953
 31
0.0
  0
LINE
  5
DA
100
AcDbEntity
  8
0
  6
Continuous
 62
               4
100
AcDbLine
 10
471.15697808577619
 20
398.66849330400004
 30
0.0
 11
699.09120669084939
 21
467.04876188552197
 31
0.0
  0
LINE
  5
DB
100
AcDbEntity
  8
0
  6
DOT
 62
               4
100
AcDbLine
 10
503.91463704033964
 20
289.47629678878877
 30
0.0
 11
731.84886564541273
 21
357.85656537031065
 31
0.0
  0
LINE
  5
DC
100
AcDbEntity
  8
0
  6
Continuous
 62
               3
100
AcDbLine
 10
391.76135220353683
 20
375.89383619021959
 30
0.0
 11
698.80385880528297
 21
468.00658817074321
 31
0.0
  0
LINE
  5
DD
100
AcDbEntity
  8
0
  6
Continuous
 62
               3
100
AcDbLine
 10
388.31317757674066
 20
387.38775161287339
 30
0.0
 11
391.76135220353683
 21
375.89383619021959
 31
0.0
  0
LINE
  5
DE
100
AcDbEntity
  8
0
  6
Continuous
 62
               3
100
AcDbLine
 10
388.31317757674066
 20
387.38775161287339
 30
0.0
 11
695.35568417848674
 21
479.50050359339701
 31
0.0
  0
LINE
  5
DF
100
AcDbEntity
  8
0
  6
Continuous
 62
               4
100
AcDbLine
 10
383.2367019047802
 20
386.9088395621763
 30
0.0
 11
383.2367019047802
 21
336.90883956217652
 31
0.0
  0
LINE
  5
E0
100
AcDbEntity
  8
0
  6
Continuous
 62
               4
100
AcDbLine
 10
389.7367019047802
 20
345.56909360002072
 30
0.0
 11
384.7367019047802
 21
336.90883956217652
 31
0.0
  0
LINE
  5
E1
100
AcDbEntity
  8
0
  6
Continuous
 62
               4
100
AcDbLine
 10
354.59769339469801
 20
412.77014464542771
 30
0.0
 11
685.58585993290683
 21
512.06659763628318
 31
0.0
  0
LINE
  5
E2
100
AcDbEntity
  8
0
  6
Continuous
 62
               4
100
AcDbLine
 10
360.34465004828303
 20
393.61362246681102
 30
0.0
 11
691.33281742026963
 21
492.91007267840695
 31
0.0
  0
LINE
  5
E3
100
AcDbEntity
  8
0
  6
Continuous
 62
               4
100
AcDbLine
 10
357.47117119261958
 20
403.19188531902245
 30
0.0
 11
688.45933856460624
 21
502.48833553061849
 31
0.0
  0
LINE
  5
E4
100
AcDbEntity
  8
0
  6
Continuous
 62
               4
100
AcDbLine
 10
364.08017256064556
 20
381.16188075893598
 30
0.0
 11
383.2367019047802
 21
386.9088395621763
 31
0.0
  0
LINE
  5
E5
100
AcDbEntity
  8
0
  6
Continuous
 62
               4
100
AcDbLine
 10
363.21812890394654
 20
384.03535961459949
 30
0.0
 11
694.20629627593314
 21
483.33180982619541
 31
0.0
  0
LINE
  5
E6
100
AcDbEntity
  8
0
  6
Continuous
 62
               4
100
AcDbLine
 10
363.21812049254902
 20
384.03535713501304
 30
0.0
 11
354.59769339469801
 21
412.77014464542771
 31
0.0
  0
LINE
  5
E7
100
AcDbEntity
  8
0
  6
Continuous
 62
               4
100
AcDbLine
 10
381.94427647730834
 20
384.20703082131109
 30
0.0
 11
364.51118597759751
 21
379.72513885151778
 31
0.0
  0
LINE
  5
E8
100
AcDbEntity
  8
0
  6
DASHED
 62
               6
100
AcDbLine
 10
388.02582969117429
 20
388.34557789809452
 30
0.0
 11
695.06833629292043
 21
480.45832987861826
 31
0.0
  0
LINE
  5
E9
100
AcDbEntity
  8
0
  6
Continuous
 62
               4
100
AcDbLine
 10
478.73197890161742
 20
416.60145331211851
 30
0.0
 11
363.7928246750792
 21
382.119707044157
 31
0.0
  0
LINE
  5
EA
100
AcDbEntity
  8
0
  6
Continuous
 62
               6
100
AcDbLine
 10
412.42349684015619
 20
334.56977955853694
 30
0.0
 11
413.08979344480895
 21
354.55867769811999
 31
0.0
  0
LINE
  5
EB
100
AcDbEntity
  8
0
  6
Continuous
 62
               7
100
AcDbLine
 10
258.43833595191438
 20
213.97011606663148
 30
0.0
 11
390.59351057294873
 21
213.97011275957232
 31
0.0
  0
LINE
  5
EC
100
AcDbEntity
  8
0
  6
Continuous
 62
               7
100
AcDbLine
 10
254.23982863941933
 20
219.85815586762772
 30
0.0
 11
250.44482606860356
 21
362.17075227321845
 31
0.0
  0
LINE
  5
ED
100
AcDbEntity
  8
0
  6
Continuous
 62
               7
100
AcDbLine
 10
240.83239045498564
 20
347.50377814583806
 30
0.0
 11
240.44837972898588
 21
361.90418037082884
 31
0.0
  0
LINE
  5
EE
100
AcDbEntity
  8
0
  6
Continuous
 62
               7
100
AcDbLine
 10
242.19975712768692
 20
363.7515236543901
 30
0.0
 11
248.59748278504222
 21
363.92212967191961
 31
0.0
  0
LINE
  5
EF
100
AcDbEntity
  8
0
  6
Continuous
 62
               7
100
AcDbLine
 10
248.4946735486968
 20
346.81273872742247
 30
0.0
 11
242.6624650356782
 21
345.96314075370958
 31
0.0
  0
LINE
  5
F0
100
AcDbEntity
  8
0
  6
Continuous
 62
               7
100
AcDbLine
 10
248.99946223906502
 20
348.84790014606403
 30
0.0
 11
248.65879432259189
 21
361.62294701380745
 31
0.0
  0
LINE
  5
F1
100
AcDbEntity
  8
0
  6
Continuous
 62
               7
100
AcDbLine
 10
248.5717159115697
 20
348.33979377078492
 30
0.0
 11
243.19069948645313
 21
347.55592250810798
 31
0.0
  0
LINE
  5
F2
100
AcDbEntity
  8
0
  6
Continuous
 62
               7
100
AcDbLine
 10
242.26106866523656
 20
361.45234099627794
 30
0.0
 11
242.61880117998672
 21
348.0373716931482
 31
0.0
  0
LINE
  5
F3
100
AcDbEntity
  8
0
  6
Continuous
 62
               7
100
AcDbLine
 10
248.14564341049152
 20
362.10944073566895
 30
0.0
 11
242.74756238709799
 21
361.96549190837834
 31
0.0
  0
LINE
  5
F4
100
AcDbEntity
  8
0
  6
Continuous
 62
               7
100
AcDbLine
 10
252.44046829828815
 20
219.81017292519743
 30
0.0
 11
249.0665718551632
 21
346.33128954238248
 31
0.0
  0
LINE
  5
F5
100
AcDbEntity
  8
0
  6
Continuous
 62
               7
100
AcDbLine
 10
400.32021901663876
 20
331.67138932829755
 30
0.0
 11
399.91666079464591
 21
319.56464266851447
 31
0.0
  0
LINE
  5
F6
100
AcDbEntity
  8
0
  6
Continuous
 62
               7
100
AcDbLine
 10
409.85412428200232
 20
317.52192689313381
 30
0.0
 11
410.33132550154659
 21
331.83796347946065
 31
0.0
  0
LINE
  5
F7
100
AcDbEntity
  8
0
  6
Continuous
 62
               7
100
AcDbLine
 10
408.59229136340286
 20
333.69693100644179
 30
0.0
 11
400.39684312617379
 21
333.97011261434966
 31
0.0
  0
LINE
  5
F8
100
AcDbEntity
  8
0
  6
Continuous
 62
               7
100
AcDbLine
 10
400.4298530949381
 20
317.50583159070482
 30
0.0
 11
407.94177788920325
 21
316.00619138620038
 31
0.0
  0
LINE
  5
F9
100
AcDbEntity
  8
0
  6
Continuous
 62
               7
100
AcDbLine
 10
394.79117933240553
 20
219.83019047259529
 30
0.0
 11
398.53787559919255
 21
332.23107847620588
 31
0.0
  0
LINE
  5
FA
100
AcDbEntity
  8
0
  6
Continuous
 62
               7
100
AcDbLine
 10
407.47487432563645
 20
317.62899996002454
 30
0.0
 11
400.31849745387541
 21
319.05766049236502
 31
0.0
  0
LINE
  5
FB
100
AcDbEntity
  8
0
  6
Continuous
 62
               7
100
AcDbLine
 10
408.51566725386778
 20
331.39820772038991
 30
0.0
 11
408.07248257338614
 21
318.10266730594105
 31
0.0
  0
LINE
  5
FC
100
AcDbEntity
  8
0
  6
Continuous
 62
               7
100
AcDbLine
 10
400.83659888524465
 20
332.15445436667085
 30
0.0
 11
408.03260221549448
 21
331.91458758899569
 31
0.0
  0
LINE
  5
FD
100
AcDbEntity
  8
0
  6
Continuous
 62
               7
100
AcDbLine
 10
396.59018016496805
 20
219.7702237781765
 30
0.0
 11
399.83224484718841
 21
317.03216424478808
 31
0.0
  0
LINE
  5
FE
100
AcDbEntity
  8
0
  6
Continuous
 62
               7
100
AcDbLine
 10
258.43833599695768
 20
215.77011606663143
 30
0.0
 11
390.59351061799208
 21
215.77011275957227
 31
0.0
  0
LINE
  5
FF
100
AcDbEntity
  8
0
  6
Continuous
 62
               6
100
AcDbLine
 10
398.04870117022739
 20
211.97011257301313
 30
0.0
 11
250.98961206375873
 21
211.97011625302878
 31
0.0
  0
LINE
  5
100
100
AcDbEntity
  8
0
  6
Continuous
 62
               6
100
AcDbLine
 10
399.01592314982332
 20
207.47011254880942
 30
0.0
 11
250.01592314982332
 21
207.47011627739437
 31
0.0
  0
LINE
  5
101
100
AcDbEntity
  8
0
  6
Continuous
 62
               6
100
AcDbLine
 10
246.6217185034038
 20
339.2527947409352
 30
0.0
 11
249.98996745482103
 21
212.94345906278966
 31
0.0
  0
LINE
  5
102
100
AcDbEntity
  8
0
  6
Continuous
 62
               6
100
AcDbLine
 10
238.85229333213596
 20
346.73075832509051
 30
0.0
 11
238.44271157985443
 21
362.09007403564681
 31
0.0
  0
LINE
  5
103
100
AcDbEntity
  8
0
  6
Continuous
 62
               6
100
AcDbLine
 10
240.04994493202008
 20
344.9517580357641
 30
0.0
 11
243.92700240366452
 21
343.25554539191955
 31
0.0
  0
LINE
  5
104
100
AcDbEntity
  8
0
  6
Continuous
 62
               6
100
AcDbLine
 10
242.15718011841739
 20
337.86299484080189
 30
0.0
 11
245.5175224096036
 21
211.85015892131889
 31
0.0
  0
LINE
  5
105
100
AcDbEntity
  8
0
  6
Continuous
 62
               6
100
AcDbLine
 10
240.95952851853326
 20
339.64199513012829
 30
0.0
 11
237.08247104688883
 21
341.33820777397284
 31
0.0
  0
LINE
  5
106
100
AcDbEntity
  8
0
  6
Continuous
 62
               6
100
AcDbLine
 10
234.38775494714955
 20
345.34095842495719
 30
0.0
 11
233.9443107270265
 21
361.97011667957133
 31
0.0
  0
LINE
  5
107
100
AcDbEntity
  8
0
  6
Continuous
 62
               6
100
AcDbLine
 10
233.9443107270265
 20
361.97011667957133
 30
0.0
 11
238.44271157985443
 21
362.09007403564681
 31
0.0
  0
LINE
  5
108
100
AcDbEntity
  8
0
  6
Continuous
 62
               6
100
AcDbLine
 10
402.14902979852781
 20
305.96330863169521
 30
0.0
 11
399.04814610223065
 21
212.93679774278041
 31
0.0
  0
LINE
  5
109
100
AcDbEntity
  8
0
  6
Continuous
 62
               6
100
AcDbLine
 10
403.7181891099579
 20
309.23023380324787
 30
0.0
 11
411.14191920358286
 21
315.59260787082474
 31
0.0
  0
LINE
  5
10A
100
AcDbEntity
  8
0
  6
Continuous
 62
               6
100
AcDbLine
 10
414.73835306823088
 20
312.74834139389293
 30
0.0
 11
407.31462297460581
 21
306.38596732631629
 31
0.0
  0
LINE
  5
10B
100
AcDbEntity
  8
0
  6
Continuous
 62
               6
100
AcDbLine
 10
233.38811031318778
 20
345.3143012347183
 30
0.0
 11
232.87640484160346
 21
364.50325641912934
 31
0.0
  0
LINE
  5
10C
100
AcDbEntity
  8
0
  6
Continuous
 62
               6
100
AcDbLine
 10
232.87640484160346
 20
364.50325641912934
 30
0.0
 11
252.36947520385795
 21
365.02307162878935
 31
0.0
  0
LINE
  5
10D
100
AcDbEntity
  8
0
  6
Continuous
 62
               6
100
AcDbLine
 10
253.26291629745711
 20
331.5190306188216
 30
0.0
 11
252.36947520385795
 21
365.02307162878935
 31
0.0
  0
LINE
  5
10E
100
AcDbEntity
  8
0
  6
Continuous
 62
               6
100
AcDbLine
 10
403.06744627218541
 20
309.98953200493668
 30
0.0
 11
410.82522191314632
 21
316.6381937878474
 31
0.0
  0
LINE
  5
10F
100
AcDbEntity
  8
0
  6
Continuous
 62
               6
100
AcDbLine
 10
411.42405193317705
 20
334.60309438876959
 30
0.0
 11
410.82522191314632
 21
316.6381937878474
 31
0.0
  0
LINE
  5
110
100
AcDbEntity
  8
0
  6
Continuous
 62
               6
100
AcDbLine
 10
411.42405193317705
 20
334.60309438876959
 30
0.0
 11
397.5450808657119
 21
335.06572675768541
 31
0.0
  0
LINE
  5
111
100
AcDbEntity
  8
0
  6
Continuous
 62
               6
100
AcDbLine
 10
397.5450808657119
 20
335.06572675768541
 30
0.0
 11
393.65740767611572
 21
325.13603614999022
 31
0.0
  0
LINE
  5
112
100
AcDbEntity
  8
0
  6
Continuous
 62
               6
100
AcDbLine
 10
403.51342534383775
 20
211.82019581276234
 30
0.0
 11
406.61721883619248
 21
304.93400058340387
 31
0.0
  0
LINE
  5
113
100
AcDbEntity
  8
0
  6
Continuous
 62
               6
100
AcDbLine
 10
412.42349684015619
 20
334.56977955853694
 30
0.0
 11
411.83932334199625
 21
317.04457461373693
 31
0.0
  0
LINE
  5
114
100
AcDbEntity
  8
0
  6
Continuous
 62
               6
100
AcDbLine
 10
416.30751448379851
 20
316.01526649530751
 30
0.0
 11
417.53942859471766
 21
352.97261243784038
 31
0.0
  0
LINE
  5
115
100
AcDbEntity
  8
0
  6
Continuous
 62
               4
100
AcDbLine
 10
494.25023263365603
 20
265.53294481589256
 30
0.0
 11
494.25023263365603
 21
142.85957152822147
 31
0.0
  0
LINE
  5
116
100
AcDbEntity
  8
0
  6
Continuous
 62
               7
100
AcDbLine
 10
494.25023263365603
 20
265.53294481589256
 30
0.0
 11
494.25023263365603
 21
71.532944815892563
 31
0.0
  0
LINE
  5
117
100
AcDbEntity
  8
0
  6
Continuous
 62
               7
100
AcDbLine
 10
524.25023263365597
 20
265.53294481589256
 30
0.0
 11
524.25023263365597
 21
71.532944815892563
 31
0.0
  0
LINE
  5
118
100
AcDbEntity
  8
0
  6
Continuous
 62
               7
100
AcDbLine
 10
494.25023263365603
 20
265.53294481589256
 30
0.0
 11
524.25023263365597
 21
265.53294481589256
 31
0.0
  0
LINE
  5
119
100
AcDbEntity
  8
0
  6
Continuous
 62
               7
100
AcDbLine
 10
514.25023263365597
 20
265.53294481589256
 30
0.0
 11
514.25023263365597
 21
71.532944815892563
 31
0.0
  0
LINE
  5
11A
100
AcDbEntity
  8
0
  6
Continuous
 62
               4
100
AcDbLine
 10
714.78679656440374
 20
21.213203435595801
 30
0.0
 11
714.78679656440374
 21
41.213203435595801
 31
0.0
  0
LINE
  5
11B
100
AcDbEntity
  8
0
  6
Continuous
 62
               4
100
AcDbLine
 10
864.78679656440374
 20
21.213203435595801
 30
0.0
 11
714.78679656440374
 21
21.213203435595801
 31
0.0
  0
LINE
  5
11C
100
AcDbEntity
  8
0
  6
Continuous
 62
               4
100
AcDbLine
 10
864.78679656440374
 20
41.213203435595801
 30
0.0
 11
864.78679656440374
 21
21.213203435595801
 31
0.0
  0
LINE
  5
11D
100
AcDbEntity
  8
0
  6
Continuous
 62
               4
100
AcDbLine
 10
864.78679656440374
 20
41.213203435595801
 30
0.0
 11
714.78679656440374
 21
41.213203435595801
 31
0.0
  0
LINE
  5
11E
100
AcDbEntity
  8
0
  6
Continuous
 62
               4
100
AcDbLine
 10
14.142135623730949
 20
595.85786437626837
 30
0.0
 11
14.142135623730949
 21
615.85786437626837
 31
0.0
  0
LINE
  5
11F
100
AcDbEntity
  8
0
  6
Continuous
 62
               4
100
AcDbLine
 10
164.14213562373095
 20
595.85786437626837
 30
0.0
 11
14.142135623730949
 21
595.85786437626837
 31
0.0
  0
LINE
  5
120
100
AcDbEntity
  8
0
  6
Continuous
 62
               4
100
AcDbLine
 10
164.14213562373095
 20
615.85786437626837
 30
0.0
 11
164.14213562373095
 21
595.85786437626837
 31
0.0
  0
LINE
  5
121
100
AcDbEntity
  8
0
  6
Continuous
 62
               4
100
AcDbLine
 10
164.14213562373095
 20
615.85786437626837
 30
0.0
 11
14.142135623730949
 21
615.85786437626837
 31
0.0
  0
CIRCLE
  5
122
100
AcDbEntity
  8
0
  6
Continuous
 62
               4
100
AcDbCircle
 10
338.2367019047802
 20
386.9088395621763
 30
0.0
 40
1.500000000000002
  0
CIRCLE
  5
123
100
AcDbEntity
  8
0
  6
Continuous
 62
               4
100
AcDbCircle
 10
338.2367019047802
 20
336.90883956217652
 30
0.0
 40
1.500000000000002
  0
CIRCLE
  5
124
100
AcDbEntity
  8
0
  6
Continuous
 62
               4
100
AcDbCircle
 10
346.83930026725307
 20
438.63145428125273
 30
0.0
 40
1.500000000000002
  0
CIRCLE
  5
125
100
AcDbEntity
  8
0
  6
Continuous
 62
               4
100
AcDbCircle
 10
365.99582929772134
 20
444.37841316572468
 30
0.0
 40
1.500000000000002
  0
CIRCLE
  5
126
100
AcDbEntity
  8
0
  6
Continuous
 62
               4
100
AcDbCircle
 10
365.99582929772134
 20
444.37841316572468
 30
0.0
 40
1.500000000000002
  0
CIRCLE
  5
127
100
AcDbEntity
  8
0
  6
Continuous
 62
               4
100
AcDbCircle
 10
461.7784539468858
 20
473.11320143713141
 30
0.0
 40
1.500000000000002
  0
CIRCLE
  5
128
100
AcDbEntity
  8
0
  6
Continuous
 62
               4
100
AcDbCircle
 10
681.56298567130261
 20
462.83432623054915
 30
0.0
 40
1.500000000000002
  0
CIRCLE
  5
129
100
AcDbEntity
  8
0
  6
Continuous
 62
               4
100
AcDbCircle
 10
678.11481104450661
 20
474.32824165320307
 30
0.0
 40
1.500000000000002
  0
CIRCLE
  5
12A
100
AcDbEntity
  8
0
  6
Continuous
 62
               4
100
AcDbCircle
 10
676.96541950224105
 20
478.15954679408782
 30
0.0
 40
1.500000000000002
  0
CIRCLE
  5
12B
100
AcDbEntity
  8
0
  6
Continuous
 62
               4
100
AcDbCircle
 10
668.34498315921485
 20
506.89433460417553
 30
0.0
 40
1.500000000000002
  0
CIRCLE
  5
12C
100
AcDbEntity
  8
0
  6
Continuous
 62
               7
100
AcDbCircle
 10
499.55827839827845
 20
395.58499114135572
 30
0.0
 40
0.5
  0
CIRCLE
  5
12D
100
AcDbEntity
  8
0
  6
Continuous
 62
               7
100
AcDbCircle
 10
501.08396332978526
 20
385.41375826464338
 30
0.0
 40
1.0
  0
CIRCLE
  5
12E
100
AcDbEntity
  8
0
  6
Continuous
 62
               7
100
AcDbCircle
 10
499.81255922019625
 20
402.1962925112187
 30
0.0
 40
0.1
  0
CIRCLE
  5
12F
100
AcDbEntity
  8
0
  6
Continuous
 62
               7
100
AcDbCircle
 10
504.38961401471681
 20
390.75365552491741
 30
0.0
 40
0.5
  0
CIRCLE
  5
130
100
AcDbEntity
  8
0
  6
Continuous
 62
               7
100
AcDbCircle
 10
507.3571982083742
 20
402.60343420767214
 30
0.0
 40
1.0
  0
CIRCLE
  5
131
100
AcDbEntity
  8
0
  6
Continuous
 62
               7
100
AcDbCircle
 10
514.47706122207285
 20
400.060625988494
 30
0.0
 40
0.5
  0
CIRCLE
  5
132
100
AcDbEntity
  8
0
  6
Continuous
 62
               7
100
AcDbCircle
 10
508.62860231796321
 20
392.4322013309598
 30
0.0
 40
0.1
  0
CIRCLE
  5
133
100
AcDbEntity
  8
0
  6
Continuous
 62
               7
100
AcDbCircle
 10
516.00274615357966
 20
389.88939311178166
 30
0.0
 40
1.0
  0
CIRCLE
  5
134
100
AcDbEntity
  8
0
  6
Continuous
 62
               7
100
AcDbCircle
 10
514.73134204399071
 20
406.67192735835698
 30
0.0
 40
0.1
  0
CIRCLE
  5
135
100
AcDbEntity
  8
0
  6
Continuous
 62
               7
100
AcDbCircle
 10
519.30839683851127
 20
395.22929037205569
 30
0.0
 40
0.5
  0
CIRCLE
  5
136
100
AcDbEntity
  8
0
  6
Continuous
 62
               7
100
AcDbCircle
 10
522.2759810321686
 20
407.07906905481042
 30
0.0
 40
1.0
  0
CIRCLE
  5
137
100
AcDbEntity
  8
0
  6
Continuous
 62
               7
100
AcDbCircle
 10
529.39584404586731
 20
404.53626083563228
 30
0.0
 40
0.5
  0
CIRCLE
  5
138
100
AcDbEntity
  8
0
  6
Continuous
 62
               7
100
AcDbCircle
 10
523.54738514175756
 20
396.90783617809808
 30
0.0
 40
0.1
  0
CIRCLE
  5
139
100
AcDbEntity
  8
0
  6
Continuous
 62
               7
100
AcDbCircle
 10
530.92152897737401
 20
394.36502795891994
 30
0.0
 40
1.0
  0
CIRCLE
  5
13A
100
AcDbEntity
  8
0
  6
Continuous
 62
               7
100
AcDbCircle
 10
529.65012486778505
 20
411.14756220549526
 30
0.0
 40
0.1
  0
CIRCLE
  5
13B
100
AcDbEntity
  8
0
  6
Continuous
 62
               7
100
AcDbCircle
 10
534.22717966230562
 20
399.70492521919397
 30
0.0
 40
0.5
  0
CIRCLE
  5
13C
100
AcDbEntity
  8
0
  6
Continuous
 62
               7
100
AcDbCircle
 10
537.19476385596295
 20
411.5547039019487
 30
0.0
 40
1.0
  0
CIRCLE
  5
13D
100
AcDbEntity
  8
0
  6
Continuous
 62
               7
100
AcDbCircle
 10
544.31462686966165
 20
409.01189568277056
 30
0.0
 40
0.5
  0
CIRCLE
  5
13E
100
AcDbEntity
  8
0
  6
Continuous
 62
               7
100
AcDbCircle
 10
538.46616796555202
 20
401.38347102523636
 30
0.0
 40
0.1
  0
CIRCLE
  5
13F
100
AcDbEntity
  8
0
  6
Continuous
 62
               7
100
AcDbCircle
 10
545.84031180116847
 20
398.84066280605822
 30
0.0
 40
1.0
  0
CIRCLE
  5
140
100
AcDbEntity
  8
0
  6
Continuous
 62
               7
100
AcDbCircle
 10
544.5689076915794
 20
415.62319705263354
 30
0.0
 40
0.1
  0
CIRCLE
  5
141
100
AcDbEntity
  8
0
  6
Continuous
 62
               7
100
AcDbCircle
 10
549.14596248609996
 20
404.18056006633225
 30
0.0
 40
0.5
  0
CIRCLE
  5
142
100
AcDbEntity
  8
0
  6
Continuous
 62
               7
100
AcDbCircle
 10
552.11354667975741
 20
416.03033874908698
 30
0.0
 40
1.0
  0
CIRCLE
  5
143
100
AcDbEntity
  8
0
  6
Continuous
 62
               7
100
AcDbCircle
 10
559.233409693456
 20
413.48753052990884
 30
0.0
 40
0.5
  0
CIRCLE
  5
144
100
AcDbEntity
  8
0
  6
Continuous
 62
               7
100
AcDbCircle
 10
553.38495078934648
 20
405.85910587237464
 30
0.0
 40
0.1
  0
CIRCLE
  5
145
100
AcDbEntity
  8
0
  6
Continuous
 62
               7
100
AcDbCircle
 10
560.75909462496293
 20
403.31629765319673
 30
0.0
 40
1.0
  0
CIRCLE
  5
146
100
AcDbEntity
  8
0
  6
Continuous
 62
               7
100
AcDbCircle
 10
559.48769051537386
 20
420.09883189977205
 30
0.0
 40
0.1
  0
CIRCLE
  5
147
100
AcDbEntity
  8
0
  6
Continuous
 62
               7
100
AcDbCircle
 10
564.06474530989442
 20
408.65619491347053
 30
0.0
 40
0.5
  0
CIRCLE
  5
148
100
AcDbEntity
  8
0
  6
Continuous
 62
               7
100
AcDbCircle
 10
567.03232950355186
 20
420.50597359622526
 30
0.0
 40
1.0
  0
CIRCLE
  5
149
100
AcDbEntity
  8
0
  6
Continuous
 62
               7
100
AcDbCircle
 10
574.15219251725046
 20
417.96316537704735
 30
0.0
 40
0.5
  0
CIRCLE
  5
14A
100
AcDbEntity
  8
0
  6
Continuous
 62
               7
100
AcDbCircle
 10
568.30373361314082
 20
410.33474071951292
 30
0.0
 40
0.1
  0
CIRCLE
  5
14B
100
AcDbEntity
  8
0
  6
Continuous
 62
               7
100
AcDbCircle
 10
575.67787744875727
 20
407.79193250033501
 30
0.0
 40
1.0
  0
CIRCLE
  5
14C
100
AcDbEntity
  8
0
  6
Continuous
 62
               7
100
AcDbCircle
 10
574.40647333916831
 20
424.57446674691033
 30
0.0
 40
0.1
  0
CIRCLE
  5
14D
100
AcDbEntity
  8
0
  6
Continuous
 62
               7
100
AcDbCircle
 10
578.98352813368888
 20
413.13182976060881
 30
0.0
 40
0.5
  0
CIRCLE
  5
14E
100
AcDbEntity
  8
0
  6
Continuous
 62
               7
100
AcDbCircle
 10
581.95111232734621
 20
424.98160844336377
 30
0.0
 40
1.0
  0
CIRCLE
  5
14F
100
AcDbEntity
  8
0
  6
Continuous
 62
               7
100
AcDbCircle
 10
596.86989515114067
 20
429.45724329050205
 30
0.0
 40
1.0
  0
CIRCLE
  5
150
100
AcDbEntity
  8
0
  6
Continuous
 62
               7
100
AcDbCircle
 10
603.98975816483926
 20
426.91443507132391
 30
0.0
 40
0.5
  0
CIRCLE
  5
151
100
AcDbEntity
  8
0
  6
Continuous
 62
               7
100
AcDbCircle
 10
598.14129926072974
 20
419.28601041378971
 30
0.0
 40
0.1
  0
CIRCLE
  5
152
100
AcDbEntity
  8
0
  6
Continuous
 62
               7
100
AcDbCircle
 10
605.51544309634619
 20
416.74320219461157
 30
0.0
 40
1.0
  0
CIRCLE
  5
153
100
AcDbEntity
  8
0
  6
Continuous
 62
               7
100
AcDbCircle
 10
604.24403898675712
 20
433.52573644118689
 30
0.0
 40
0.1
  0
CIRCLE
  5
154
100
AcDbEntity
  8
0
  6
Continuous
 62
               7
100
AcDbCircle
 10
608.82109378127768
 20
422.0830994548856
 30
0.0
 40
0.5
  0
CIRCLE
  5
155
100
AcDbEntity
  8
0
  6
Continuous
 62
               7
100
AcDbCircle
 10
611.78867797493513
 20
433.93287813764033
 30
0.0
 40
1.0
  0
CIRCLE
  5
156
100
AcDbEntity
  8
0
  6
Continuous
 62
               7
100
AcDbCircle
 10
618.90854098863372
 20
431.39006991846219
 30
0.0
 40
0.5
  0
CIRCLE
  5
157
100
AcDbEntity
  8
0
  6
Continuous
 62
               7
100
AcDbCircle
 10
613.06008208452408
 20
423.76164526092799
 30
0.0
 40
0.1
  0
CIRCLE
  5
158
100
AcDbEntity
  8
0
  6
Continuous
 62
               7
100
AcDbCircle
 10
620.43422592014065
 20
421.21883704174985
 30
0.0
 40
1.0
  0
CIRCLE
  5
159
100
AcDbEntity
  8
0
  6
Continuous
 62
               7
100
AcDbCircle
 10
619.16282181055146
 20
438.00137128832517
 30
0.0
 40
0.1
  0
CIRCLE
  5
15A
100
AcDbEntity
  8
0
  6
Continuous
 62
               7
100
AcDbCircle
 10
623.73987660507203
 20
426.55873430202388
 30
0.0
 40
0.5
  0
CIRCLE
  5
15B
100
AcDbEntity
  8
0
  6
Continuous
 62
               7
100
AcDbCircle
 10
626.70746079872947
 20
438.40851298477861
 30
0.0
 40
1.0
  0
CIRCLE
  5
15C
100
AcDbEntity
  8
0
  6
Continuous
 62
               7
100
AcDbCircle
 10
633.82732381242806
 20
435.86570476560047
 30
0.0
 40
0.5
  0
CIRCLE
  5
15D
100
AcDbEntity
  8
0
  6
Continuous
 62
               7
100
AcDbCircle
 10
627.97886490831854
 20
428.23728010806627
 30
0.0
 40
0.1
  0
CIRCLE
  5
15E
100
AcDbEntity
  8
0
  6
Continuous
 62
               7
100
AcDbCircle
 10
635.35300874393499
 20
425.69447188888813
 30
0.0
 40
1.0
  0
CIRCLE
  5
15F
100
AcDbEntity
  8
0
  6
Continuous
 62
               7
100
AcDbCircle
 10
634.08160463434592
 20
442.47700613546368
 30
0.0
 40
0.1
  0
CIRCLE
  5
160
100
AcDbEntity
  8
0
  6
Continuous
 62
               7
100
AcDbCircle
 10
638.65865942886649
 20
431.03436914916216
 30
0.0
 40
0.5
  0
CIRCLE
  5
161
100
AcDbEntity
  8
0
  6
Continuous
 62
               7
100
AcDbCircle
 10
641.62624362252393
 20
442.88414783191689
 30
0.0
 40
1.0
  0
CIRCLE
  5
162
100
AcDbEntity
  8
0
  6
Continuous
 62
               7
100
AcDbCircle
 10
648.74610663622252
 20
440.34133961273898
 30
0.0
 40
0.5
  0
CIRCLE
  5
163
100
AcDbEntity
  8
0
  6
Continuous
 62
               7
100
AcDbCircle
 10
642.89764773211289
 20
432.71291495520455
 30
0.0
 40
0.1
  0
CIRCLE
  5
164
100
AcDbEntity
  8
0
  6
Continuous
 62
               7
100
AcDbCircle
 10
650.27179156772934
 20
430.17010673602664
 30
0.0
 40
1.0
  0
CIRCLE
  5
165
100
AcDbEntity
  8
0
  6
Continuous
 62
               7
100
AcDbCircle
 10
649.00038745814038
 20
446.95264098260196
 30
0.0
 40
0.1
  0
CIRCLE
  5
166
100
AcDbEntity
  8
0
  6
Continuous
 62
               7
100
AcDbCircle
 10
653.57744225266094
 20
435.51000399630044
 30
0.0
 40
0.5
  0
CIRCLE
  5
167
100
AcDbEntity
  8
0
  6
Continuous
 62
               7
100
AcDbCircle
 10
656.54502644631827
 20
447.3597826790554
 30
0.0
 40
1.0
  0
CIRCLE
  5
168
100
AcDbEntity
  8
0
  6
Continuous
 62
               7
100
AcDbCircle
 10
663.66488946001698
 20
444.81697445987726
 30
0.0
 40
0.5
  0
CIRCLE
  5
169
100
AcDbEntity
  8
0
  6
Continuous
 62
               7
100
AcDbCircle
 10
657.81643055590735
 20
437.18854980234306
 30
0.0
 40
0.1
  0
CIRCLE
  5
16A
100
AcDbEntity
  8
0
  6
Continuous
 62
               7
100
AcDbCircle
 10
665.1905743915238
 20
434.64574158316492
 30
0.0
 40
1.0
  0
CIRCLE
  5
16B
100
AcDbEntity
  8
0
  6
Continuous
 62
               7
100
AcDbCircle
 10
663.91917028193473
 20
451.42827582974024
 30
0.0
 40
0.1
  0
CIRCLE
  5
16C
100
AcDbEntity
  8
0
  6
Continuous
 62
               7
100
AcDbCircle
 10
668.49622507645529
 20
439.98563884343895
 30
0.0
 40
0.5
  0
CIRCLE
  5
16D
100
AcDbEntity
  8
0
  6
Continuous
 62
               7
100
AcDbCircle
 10
671.46380927011262
 20
451.83541752619368
 30
0.0
 40
1.0
  0
CIRCLE
  5
16E
100
AcDbEntity
  8
0
  6
Continuous
 62
               7
100
AcDbCircle
 10
678.58367228381132
 20
449.29260930701554
 30
0.0
 40
0.5
  0
CIRCLE
  5
16F
100
AcDbEntity
  8
0
  6
Continuous
 62
               7
100
AcDbCircle
 10
672.7352133797018
 20
441.66418464948134
 30
0.0
 40
0.1
  0
CIRCLE
  5
170
100
AcDbEntity
  8
0
  6
Continuous
 62
               7
100
AcDbCircle
 10
680.10935721531825
 20
439.1213764303032
 30
0.0
 40
1.0
  0
CIRCLE
  5
171
100
AcDbEntity
  8
0
  6
Continuous
 62
               7
100
AcDbCircle
 10
678.83795310572907
 20
455.90391067687852
 30
0.0
 40
0.1
  0
CIRCLE
  5
172
100
AcDbEntity
  8
0
  6
Continuous
 62
               7
100
AcDbCircle
 10
683.41500790024963
 20
444.46127369057723
 30
0.0
 40
0.5
  0
CIRCLE
  5
173
100
AcDbEntity
  8
0
  6
Continuous
 62
               7
100
AcDbCircle
 10
686.38259209390696
 20
456.31105237333196
 30
0.0
 40
1.0
  0
CIRCLE
  5
174
100
AcDbEntity
  8
0
  6
Continuous
 62
               7
100
AcDbCircle
 10
693.50245510760567
 20
453.76824415415382
 30
0.0
 40
0.5
  0
CIRCLE
  5
175
100
AcDbEntity
  8
0
  6
Continuous
 62
               7
100
AcDbCircle
 10
687.65399620349615
 20
446.13981949661962
 30
0.0
 40
0.1
  0
CIRCLE
  5
176
100
AcDbEntity
  8
0
  6
Continuous
 62
               7
100
AcDbCircle
 10
695.0281400391126
 20
443.59701127744148
 30
0.0
 40
1.0
  0
CIRCLE
  5
177
100
AcDbEntity
  8
0
  6
Continuous
 62
               7
100
AcDbCircle
 10
693.75673592952342
 20
460.37954552401692
 30
0.0
 40
0.1
  0
CIRCLE
  5
178
100
AcDbEntity
  8
0
  6
Continuous
 62
               7
100
AcDbCircle
 10
698.33379072404398
 20
448.93690853771551
 30
0.0
 40
0.5
  0
CIRCLE
  5
179
100
AcDbEntity
  8
0
  6
Continuous
 62
               7
100
AcDbCircle
 10
701.30137491770154
 20
460.78668722047036
 30
0.0
 40
1.0
  0
CIRCLE
  5
17A
100
AcDbEntity
  8
0
  6
Continuous
 62
               7
100
AcDbCircle
 10
702.57277902729049
 20
450.6154543437579
 30
0.0
 40
0.1
  0
CIRCLE
  5
17B
100
AcDbEntity
  8
0
  6
Continuous
 62
               7
100
AcDbCircle
 10
484.63949557448404
 20
391.10935629421743
 30
0.0
 40
0.5
  0
CIRCLE
  5
17C
100
AcDbEntity
  8
0
  6
Continuous
 62
               7
100
AcDbCircle
 10
486.16518050599086
 20
380.9381234175051
 30
0.0
 40
1.0
  0
CIRCLE
  5
17D
100
AcDbEntity
  8
0
  6
Continuous
 62
               7
100
AcDbCircle
 10
484.89377639640185
 20
397.72065766408042
 30
0.0
 40
0.1
  0
CIRCLE
  5
17E
100
AcDbEntity
  8
0
  6
Continuous
 62
               7
100
AcDbCircle
 10
489.47083119092241
 20
386.27802067777912
 30
0.0
 40
0.5
  0
CIRCLE
  5
17F
100
AcDbEntity
  8
0
  6
Continuous
 62
               7
100
AcDbCircle
 10
492.4384153845798
 20
398.12779936053386
 30
0.0
 40
1.0
  0
CIRCLE
  5
180
100
AcDbEntity
  8
0
  6
Continuous
 62
               7
100
AcDbCircle
 10
493.70981949416881
 20
387.95656648382152
 30
0.0
 40
0.1
  0
CIRCLE
  5
181
100
AcDbEntity
  8
0
  6
Continuous
 62
               7
100
AcDbCircle
 10
477.51963256078534
 20
393.65216451339569
 30
0.0
 40
1.0
  0
CIRCLE
  5
182
100
AcDbEntity
  8
0
  6
Continuous
 62
               7
100
AcDbCircle
 10
478.79103667037435
 20
383.48093163668324
 30
0.0
 40
0.1
  0
ARC
  5
183
100
AcDbEntity
  8
0
  6
Continuous
 62
               6
100
AcDbCircle
 10
417.58729552621514
 20
354.40876096207313
 30
0.0
 40
4.5
100
AcDbArc
 50
106.6992442339936
 51
178.09084756700364
  0
ARC
  5
184
100
AcDbEntity
  8
0
  6
Continuous
 62
               6
100
AcDbCircle
 10
419.53831447495031
 20
352.90600534491165
 30
0.0
 40
2.0
100
AcDbArc
 50
106.6992442339936
 51
178.09084756700358
  0
ARC
  5
185
100
AcDbEntity
  8
0
  6
Continuous
 62
               6
100
AcDbCircle
 10
626.33751090089208
 20
215.53590995250244
 30
0.0
 40
2.0
100
AcDbArc
 50
196.69924423399354
 51
286.69924423399362
  0
ARC
  5
186
100
AcDbEntity
  8
0
  6
Continuous
 62
               6
100
AcDbCircle
 10
670.39752002106513
 20
228.75391268855429
 30
0.0
 40
2.0
100
AcDbArc
 50
286.69924423399362
 51
16.699244233993603
  0
ARC
  5
187
100
AcDbEntity
  8
0
  6
Continuous
 62
               6
100
AcDbCircle
 10
598.75211388652292
 20
307.48723333373306
 30
0.0
 40
2.0
100
AcDbArc
 50
106.6992442339936
 51
196.69924423399354
  0
ARC
  5
188
100
AcDbEntity
  8
0
  6
Continuous
 62
               6
100
AcDbCircle
 10
642.81212300669597
 20
320.70523606978492
 30
0.0
 40
2.0
100
AcDbArc
 50
16.699244233993618
 51
106.6992442339936
  0
ARC
  5
189
100
AcDbEntity
  8
0
  6
DOT
 62
               4
100
AcDbCircle
 10
592.85190396956068
 20
407.19694962525506
 30
0.0
 40
12.0
100
AcDbArc
 50
267.22802359950288
 51
306.17046486848426
  0
ARC
  5
18A
100
AcDbEntity
  8
0
  6
DOT
 62
               4
100
AcDbCircle
 10
601.12752307387143
 20
400.49216562870703
 30
0.0
 40
3.2000000000000002
100
AcDbArc
 50
248.32958577268136
 51
286.69924423399362
  0
ARC
  5
18B
100
AcDbEntity
  8
0
  6
DOT
 62
               4
100
AcDbCircle
 10
589.63360765121752
 20
397.04399100191091
 30
0.0
 40
3.2000000000000002
100
AcDbArc
 50
286.69924423399362
 51
325.38143168748331
  0
ARC
  5
18C
100
AcDbEntity
  8
0
  6
Continuous
 62
               4
100
AcDbCircle
 10
593.02431270090051
 20
406.62225385412222
 30
0.0
 40
12.0
100
AcDbArc
 50
87.228023599502833
 51
126.17046486848416
  0
ARC
  5
18D
100
AcDbEntity
  8
0
  6
Continuous
 62
               4
100
AcDbCircle
 10
596.24260901924367
 20
416.77521247746637
 30
0.0
 40
3.2000000000000002
100
AcDbArc
 50
106.69924423399353
 51
145.0689026953057
  0
ARC
  5
18E
100
AcDbEntity
  8
0
  6
Continuous
 62
               4
100
AcDbCircle
 10
584.74869359658965
 20
413.32703785067048
 30
0.0
 40
3.2000000000000002
100
AcDbArc
 50
68.017056780503722
 51
106.69924423399353
  0
ARC
  5
18F
100
AcDbEntity
  8
0
  6
Continuous
 62
               4
100
AcDbCircle
 10
578.63041790840134
 20
409.29909077734266
 30
0.0
 40
3.0
100
AcDbArc
 50
286.69924423399362
 51
324.17542379535467
  0
ARC
  5
190
100
AcDbEntity
  8
0
  6
Continuous
 62
               4
100
AcDbCircle
 10
584.51658101376177
 20
407.20202630065393
 30
0.0
 40
3.0
100
AcDbArc
 50
106.69924423399353
 51
144.17542379535413
  0
ARC
  5
191
100
AcDbEntity
  8
0
  6
Continuous
 62
               4
100
AcDbCircle
 10
603.56774582681055
 20
416.78028915286524
 30
0.0
 40
3.0
100
AcDbArc
 50
249.22306467263238
 51
286.69924423399351
  0
ARC
  5
192
100
AcDbEntity
  8
0
  6
Continuous
 62
               4
100
AcDbCircle
 10
599.80795707464108
 20
411.78943911891753
 30
0.0
 40
3.0
100
AcDbArc
 50
69.223064672632916
 51
106.69924423399353
  0
ARC
  5
193
100
AcDbEntity
  8
0
  6
Continuous
 62
               4
100
AcDbCircle
 10
579.8350447534051
 20
403.60510105567579
 30
0.0
 40
0.5
100
AcDbArc
 50
106.69924423399353
 51
286.69924423399362
  0
ARC
  5
194
100
AcDbEntity
  8
0
  6
Continuous
 62
               4
100
AcDbCircle
 10
605.69635445437643
 20
411.36349396596694
 30
0.0
 40
0.5
100
AcDbArc
 50
286.69924423399362
 51
106.6992442339935
  0
ARC
  5
195
100
AcDbEntity
  8
0
  6
Continuous
 62
               4
100
AcDbCircle
 10
383.9867019047802
 20
336.90883956217652
 30
0.0
 40
0.75
100
AcDbArc
 50
180.0
 51
0.0
  0
ARC
  5
196
100
AcDbEntity
  8
0
  6
Continuous
 62
               4
100
AcDbCircle
 10
363.86465323507332
 20
381.88024799326553
 30
0.0
 40
2.2500000000000111
100
AcDbArc
 50
106.6992442339936
 51
286.69924423399334
  0
ARC
  5
197
100
AcDbEntity
  8
0
  6
Continuous
 62
               4
100
AcDbCircle
 10
363.93649861786241
 20
381.64079390154649
 30
0.0
 40
0.500000000000046
100
AcDbArc
 50
106.69924423399502
 51
286.69924423399226
  0
ARC
  5
198
100
AcDbEntity
  8
0
  6
Continuous
 62
               7
100
AcDbCircle
 10
248.64546572747238
 20
362.1227693307884
 30
0.0
 40
1.8
100
AcDbArc
 50
1.5275254422129296
 51
91.527525442212834
  0
ARC
  5
199
100
AcDbEntity
  8
0
  6
Continuous
 62
               7
100
AcDbCircle
 10
242.24774007011709
 20
361.95216331325889
 30
0.0
 40
1.8
100
AcDbArc
 50
91.527525442212834
 51
181.52752544221286
  0
ARC
  5
19A
100
AcDbEntity
  8
0
  6
Continuous
 62
               7
100
AcDbCircle
 10
242.43182186932447
 20
347.54642965022038
 30
0.0
 40
1.6000000000000001
100
AcDbArc
 50
181.52752544221286
 51
278.28817526085123
  0
ARC
  5
19B
100
AcDbEntity
  8
0
  6
Continuous
 62
               7
100
AcDbCircle
 10
243.11862349696759
 20
348.05070028826765
 30
0.0
 40
0.5
100
AcDbArc
 50
181.52752544221292
 51
278.28817526085135
  0
ARC
  5
19C
100
AcDbEntity
  8
0
  6
Continuous
 62
               7
100
AcDbCircle
 10
242.76089098221746
 20
361.46566959139739
 30
0.0
 40
0.5
100
AcDbArc
 50
91.527525442212905
 51
181.52752544221292
  0
ARC
  5
19D
100
AcDbEntity
  8
0
  6
Continuous
 62
               7
100
AcDbCircle
 10
248.15897200561099
 20
361.609618418688
 30
0.0
 40
0.5
100
AcDbArc
 50
1.5275254422129296
 51
91.527525442212948
  0
ARC
  5
19E
100
AcDbEntity
  8
0
  6
Continuous
 62
               7
100
AcDbCircle
 10
248.49963992208416
 20
348.83457155094459
 30
0.0
 40
0.5
100
AcDbArc
 50
278.2881752608514
 51
1.5275254422128894
  0
ARC
  5
19F
100
AcDbEntity
  8
0
  6
Continuous
 62
               7
100
AcDbCircle
 10
248.56674953818234
 20
346.3179609472628
 30
0.0
 40
0.5
100
AcDbArc
 50
1.5275254422129296
 51
98.288175260851261
  0
ARC
  5
1A0
100
AcDbEntity
  8
0
  6
Continuous
 62
               7
100
AcDbCircle
 10
400.336876431755
 20
332.17111178178732
 30
0.0
 40
1.8
100
AcDbArc
 50
88.090847567002285
 51
178.09084756700364
  0
ARC
  5
1A1
100
AcDbEntity
  8
0
  6
Continuous
 62
               7
100
AcDbCircle
 10
408.53232466898407
 20
331.89793017387944
 30
0.0
 40
1.8
100
AcDbArc
 50
358.09084756700355
 51
88.090847567002356
  0
ARC
  5
1A2
100
AcDbEntity
  8
0
  6
Continuous
 62
               7
100
AcDbCircle
 10
408.25501243083568
 20
317.57523062150597
 30
0.0
 40
1.6000000000000001
100
AcDbArc
 50
258.71019883628782
 51
358.09084756700361
  0
ARC
  5
1A3
100
AcDbEntity
  8
0
  6
Continuous
 62
               7
100
AcDbCircle
 10
400.33196730067795
 20
317.01550682967184
 30
0.0
 40
0.5
100
AcDbArc
 50
78.710198836287773
 51
178.09084756700364
  0
ARC
  5
1A4
100
AcDbEntity
  8
0
  6
Continuous
 62
               7
100
AcDbCircle
 10
400.41638324813556
 20
319.547985253398
 30
0.0
 40
0.5
100
AcDbArc
 50
178.09084756700364
 51
258.71019883628884
  0
ARC
  5
1A5
100
AcDbEntity
  8
0
  6
Continuous
 62
               7
100
AcDbCircle
 10
407.57276011989654
 20
318.11932472105752
 30
0.0
 40
0.5
100
AcDbArc
 50
258.71019883628884
 51
358.09084756700355
  0
ARC
  5
1A6
100
AcDbEntity
  8
0
  6
Continuous
 62
               7
100
AcDbCircle
 10
408.01594480037818
 20
331.41486513550615
 30
0.0
 40
0.5
100
AcDbArc
 50
358.09084756700355
 51
88.090847567002299
  0
ARC
  5
1A7
100
AcDbEntity
  8
0
  6
Continuous
 62
               7
100
AcDbCircle
 10
400.8199414701283
 20
331.65473191318131
 30
0.0
 40
0.5
100
AcDbArc
 50
88.090847567002228
 51
178.09084756700364
  0
ARC
  5
1A8
100
AcDbEntity
  8
0
  6
Continuous
 62
               7
100
AcDbCircle
 10
390.59351072309312
 20
219.97011275957232
 30
0.0
 40
6.0
100
AcDbArc
 50
269.99999856622691
 51
358.09084756700355
  0
ARC
  5
1A9
100
AcDbEntity
  8
0
  6
Continuous
 62
               7
100
AcDbCircle
 10
390.59351072309312
 20
219.97011275957232
 30
0.0
 40
4.1999999999999993
100
AcDbArc
 50
269.99999856622691
 51
358.09084756700355
  0
ARC
  5
1AA
100
AcDbEntity
  8
0
  6
Continuous
 62
               7
100
AcDbCircle
 10
258.43833610205877
 20
219.97011606663148
 30
0.0
 40
4.1999999999999993
100
AcDbArc
 50
181.52752544221292
 51
269.99999856622691
  0
ARC
  5
1AB
100
AcDbEntity
  8
0
  6
Continuous
 62
               7
100
AcDbCircle
 10
258.43833610205877
 20
219.97011606663148
 30
0.0
 40
6.0
100
AcDbArc
 50
181.52752544221292
 51
269.99999856622691
  0
ARC
  5
1AC
100
AcDbEntity
  8
0
  6
Continuous
 62
               6
100
AcDbCircle
 10
250.01592326243158
 20
211.97011627739437
 30
0.0
 40
4.5
100
AcDbArc
 50
181.52752544221292
 51
269.99999856622691
  0
ARC
  5
1AD
100
AcDbEntity
  8
0
  6
Continuous
 62
               6
100
AcDbCircle
 10
250.98961208878279
 20
212.97011625302878
 30
0.0
 40
1.0
100
AcDbArc
 50
181.52752544221292
 51
269.99999856622691
  0
ARC
  5
1AE
100
AcDbEntity
  8
0
  6
Continuous
 62
               6
100
AcDbCircle
 10
398.04870119525145
 20
212.97011257301313
 30
0.0
 40
1.0
100
AcDbArc
 50
269.99999856622691
 51
358.09084756700361
  0
ARC
  5
1AF
100
AcDbEntity
  8
0
  6
Continuous
 62
               6
100
AcDbCircle
 10
242.12331765057584
 20
339.13283738485973
 30
0.0
 40
4.5
100
AcDbArc
 50
1.5275254422129296
 51
66.37062226934323
  0
ARC
  5
1B0
100
AcDbEntity
  8
0
  6
Continuous
 62
               6
100
AcDbCircle
 10
238.88615579997753
 20
345.46091578103267
 30
0.0
 40
4.5
100
AcDbArc
 50
181.52752544221292
 51
246.37062226934327
  0
ARC
  5
1B1
100
AcDbEntity
  8
0
  6
Continuous
 62
               6
100
AcDbCircle
 10
240.15789085049386
 20
337.8096804603241
 30
0.0
 40
2.0
100
AcDbArc
 50
1.5275254422129296
 51
66.370622269343286
  0
ARC
  5
1B2
100
AcDbEntity
  8
0
  6
Continuous
 62
               6
100
AcDbCircle
 10
240.85158260005952
 20
346.78407270556852
 30
0.0
 40
2.0
100
AcDbArc
 50
181.527525442213
 51
246.37062226934322
  0
ARC
  5
1B3
100
AcDbEntity
  8
0
  6
Continuous
 62
               6
100
AcDbCircle
 10
408.61610865015081
 20
304.86737092293868
 30
0.0
 40
2.0
100
AcDbArc
 50
130.59763209715049
 51
178.09084756700364
  0
ARC
  5
1B4
100
AcDbEntity
  8
0
  6
Continuous
 62
               6
100
AcDbCircle
 10
409.84043352803798
 20
317.11120427420212
 30
0.0
 40
2.0
100
AcDbArc
 50
310.59763209715044
 51
358.09084756700355
  0
ARC
  5
1B5
100
AcDbEntity
  8
0
  6
Continuous
 62
               6
100
AcDbCircle
 10
411.81001029825478
 20
316.16518330149245
 30
0.0
 40
4.5
100
AcDbArc
 50
310.59763209715044
 51
358.09084756700349
  0
ARC
  5
1B6
100
AcDbEntity
  8
0
  6
Continuous
 62
               6
100
AcDbCircle
 10
406.646531879934
 20
305.81339189564835
 30
0.0
 40
4.5
100
AcDbArc
 50
130.59763209715041
 51
178.09084756700364
  0
ARC
  5
1B7
100
AcDbEntity
  8
0
  6
Continuous
 62
               6
100
AcDbCircle
 10
399.01592326243156
 20
211.9701125488092
 30
0.0
 40
4.5
100
AcDbArc
 50
269.99999856622691
 51
358.09084756700355
  0
TEXT
  5
1B8
100
AcDbEntity
  8
0
 62
               7
100
AcDbText
 10
338.2367019047802
 20
355.90883956217641
 30
0.0
 40
12.000000000000012
  1
50
 50
90.000000000000028
 41
0.7695
  7
FontTableH_0
 72
               5
 11
338.2367019047802
 21
367.90883956217641
 31
0.0
100
AcDbText
  0
TEXT
  5
1B9
100
AcDbEntity
  8
0
 62
               7
100
AcDbText
 10
350.67060708563713
 20
439.78084636183422
 30
0.0
 40
11.999999999999968
  1
20
 50
16.699244715098196
 41
0.7695
  7
FontTableH_0
 72
               5
 11
362.16452247933722
 21
443.22902108514319
 31
0.0
100
AcDbText
  0
TEXT
  5
1BA
100
AcDbEntity
  8
0
 62
               7
100
AcDbText
 10
405.26670507702852
 20
456.15967625894638
 30
0.0
 40
11.999999999999968
  1
100
 50
16.699244715098317
 41
0.7695
  7
FontTableH_0
 72
               5
 11
422.50757816757857
 21
461.33193834390983
 31
0.0
100
AcDbText
  0
TEXT
  5
1BB
100
AcDbEntity
  8
0
 62
               7
100
AcDbText
 10
678.1148110445065
 20
474.32824165320301
 30
0.0
 40
12.000000000000064
  1
12
 50
286.69924423399283
 41
0.7695
  7
FontTableH_0
 72
               5
 11
681.5629856713025
 21
462.8343262305491
 31
0.0
100
AcDbText
  0
TEXT
  5
1BC
100
AcDbEntity
  8
0
 62
               7
100
AcDbText
 10
670.93111401732983
 20
498.27389841045863
 30
0.0
 40
12.000000000000064
  1
30
 50
286.69924423399283
 41
0.7695
  7
FontTableH_0
 72
               5
 11
674.37928864412584
 21
486.77998298780471
 31
0.0
100
AcDbText
  0
TEXT
  5
1BD
100
AcDbEntity
  8
0
 62
               7
100
AcDbText
 10
312.62557065372977
 20
247.47965503177085
 30
0.0
 40
12.000000000000012
  1
軒樋
 41
0.7695
  7
FontTableH_0
 72
               5
 11
336.62557065372977
 21
247.47965503177085
 31
0.0
100
AcDbText
  0
TEXT
  5
1BE
100
AcDbEntity
  8
0
 62
               7
100
AcDbText
 10
301.30847277677628
 20
305.51354050389449
 30
0.0
 40
12.000000000000012
  1
軒先唐草
 41
0.7695
  7
FontTableH_0
 72
               5
 11
349.30847277677634
 21
305.51354050389449
 31
0.0
100
AcDbText
  0
TEXT
  5
1BF
100
AcDbEntity
  8
0
 62
               7
100
AcDbText
 10
425.64703322671642
 20
174.04180843565672
 30
0.0
 40
12.000000000000012
  1
既存外壁
 41
0.7695
  7
FontTableH_0
 72
               5
 11
473.64703322671647
 21
174.04180843565757
 31
0.0
100
AcDbText
  0
TEXT
  5
1C0
100
AcDbEntity
  8
0
 62
               7
100
AcDbText
 10
678.62562378282394
 20
271.10283621592822
 30
0.0
 40
12.000000000000012
  1
既存母屋
 41
0.7695
  7
FontTableH_0
 72
               5
 11
726.62562378282394
 21
271.10283621592822
 31
0.0
100
AcDbText
  0
TEXT
  5
1C1
100
AcDbEntity
  8
0
 62
               7
100
AcDbText
 10
681.94623815685793
 20
304.30897995626822
 30
0.0
 40
11.999999999999842
  1
既存折板葺
 41
0.7695
  7
FontTableH_0
 72
               5
 11
741.94623815685804
 21
304.30897995626822
 31
0.0
100
AcDbText
  0
TEXT
  5
1C2
100
AcDbEntity
  8
0
 62
               7
100
AcDbText
 10
716.5267472908954
 20
327.63322129091819
 30
0.0
 40
12.000000000000012
  1
断熱材
 41
0.7695
  7
FontTableH_0
 72
               5
 11
752.5267472908954
 21
327.63322129091819
 31
0.0
100
AcDbText
  0
TEXT
  5
1C3
100
AcDbEntity
  8
0
 62
               7
100
AcDbText
 10
342.52675847141495
 20
497.2981679464221
 30
0.0
 40
12.000000000000012
  1
ハーパーズストロングルーフ385
 41
0.7695
  7
FontTableH_0
 72
               5
 11
516.52675847141529
 21
497.2981679464221
 31
0.0
100
AcDbText
  0
TEXT
  5
1C4
100
AcDbEntity
  8
0
 62
               7
100
AcDbText
 10
521.17968740982019
 20
522.13205896408203
 30
0.0
 40
12.000000000000012
  1
遮音材
 41
0.7695
  7
FontTableH_0
 72
               5
 11
557.17968740982019
 21
522.13205896408203
 31
0.0
100
AcDbText
  0
TEXT
  5
1C5
100
AcDbEntity
  8
0
 62
               7
100
AcDbText
 10
512.59240672358351
 20
546.05555674819948
 30
0.0
 40
12.000000000000012
  1
ルーフィング
 41
0.7695
  7
FontTableH_0
 72
               5
 11
584.59240672358362
 21
546.05555674820221
 31
0.0
100
AcDbText
  0
TEXT
  5
1C6
100
AcDbEntity
  8
0
 62
               7
100
AcDbText
 10
744.7867977564963
 20
26.71320355480508
 30
0.0
 40
8.9999997615814422
  1
軒先詳細図 【S=1/3】
 41
0.7695
  7
FontTableH_0
 72
               5
 11
834.78679537231073
 21
26.71320355480508
 31
0.0
100
AcDbText
  0
TEXT
  5
1C7
100
AcDbEntity
  8
0
 62
               7
100
AcDbText
 10
57.642136458195907
 20
601.35786449547766
 30
0.0
 40
8.9999997615814422
  1
ジンクロン折板
 41
0.7695
  7
FontTableH_0
 72
               5
 11
120.64213478926601
 21
601.35786449547766
 31
0.0
100
AcDbText
  0
ENDSEC
  0
SECTION
  2
OBJECTS
  0
DICTIONARY
  5
19
100
AcDbDictionary
  3
ACAD_GROUP
350
1A
  3
ACAD_MLINESTYLE
350
1B
  3
DWGPROPS
350
1C8
  0
DICTIONARY
  5
1A
102
{ACAD_REACTORS
330
19
102
}
100
AcDbDictionary
  0
DICTIONARY
  5
1B
102
{ACAD_REACTORS
330
19
102
}
100
AcDbDictionary
  3
STANDARD
350
1C
  0
MLINESTYLE
  5
1C
102
{ACAD_REACTORS
330
1B
102
}
100
AcDbMlineStyle
  2
Standard
 70
               0
  3

 62
               0
 51
90.0
 52
90.0
 71
               2
 49
0.5
 62
             256
  6
ByLayer
 49
-0.5
 62
             256
  6
ByLayer
  0
XRECORD
  5
1C8
100
AcDbXrecord
  1
DWGPROPS COOKIE
  2

  3

  4

  6

  7

  0
ENDSEC
  0
EOF
