  0
SECTION
  2
HEADER
  9
$ACADVER
  1
AC1014
  9
$ACADMAINTVER
 70
               0
  9
$DWGCODEPAGE
  3
ANSI_932
  9
$INSBASE
 10
0.0
 20
0.0
 30
0.0
  9
$EXTMIN
 10
0.0
 20
0.0
 30
0.0
  9
$EXTMAX
 10
891.00000000000091
 20
630.00000000000068
 30
0.0
  9
$LIMMIN
 10
0.0
 20
0.0
  9
$LIMMAX
 10
891.00000000000091
 20
630.00000000000068
  9
$ORTHOMODE
 70
               0
  9
$REGENMODE
 70
               1
  9
$FILLMODE
 70
               1
  9
$QTEXTMODE
 70
               0
  9
$MIRRTEXT
 70
               1
  9
$DRAGMODE
 70
               2
  9
$LTSCALE
 40
3.0000000000000031
  9
$OSMODE
 70
               0
  9
$ATTMODE
 70
               1
  9
$TEXTSIZE
 40
0.2
  9
$TRACEWID
 40
0.05
  9
$TEXTSTYLE
  7
Standard
  9
$CLAYER
  8
0
  9
$CELTYPE
  6
Continuous
  9
$CECOLOR
 62
             256
  9
$CELTSCALE
 40
1.0
  9
$DELOBJ
 70
               1
  9
$DISPSILH
 70
               0
  9
$DIMSCALE
 40
1.0
  9
$DIMASZ
 40
0.18
  9
$DIMEXO
 40
0.0625
  9
$DIMDLI
 40
0.38
  9
$DIMRND
 40
0.0
  9
$DIMDLE
 40
0.0
  9
$DIMEXE
 40
0.18
  9
$DIMTP
 40
0.0
  9
$DIMTM
 40
0.0
  9
$DIMTXT
 40
0.18
  9
$DIMCEN
 40
0.09
  9
$DIMTSZ
 40
0.0
  9
$DIMTOL
 70
               0
  9
$DIMLIM
 70
               0
  9
$DIMTIH
 70
               1
  9
$DIMTOH
 70
               1
  9
$DIMSE1
 70
               0
  9
$DIMSE2
 70
               0
  9
$DIMTAD
 70
               0
  9
$DIMZIN
 70
               0
  9
$DIMBLK
  1

  9
$DIMASO
 70
               1
  9
$DIMSHO
 70
               1
  9
$DIMPOST
  1

  9
$DIMAPOST
  1

  9
$DIMALT
 70
               0
  9
$DIMALTD
 70
               2
  9
$DIMALTF
 40
25.399999999999999
  9
$DIMLFAC
 40
1.0
  9
$DIMTOFL
 70
               0
  9
$DIMTVP
 40
0.0
  9
$DIMTIX
 70
               0
  9
$DIMSOXD
 70
               0
  9
$DIMSAH
 70
               0
  9
$DIMBLK1
  1

  9
$DIMBLK2
  1

  9
$DIMSTYLE
  2
Standard
  9
$DIMCLRD
 70
               0
  9
$DIMCLRE
 70
               0
  9
$DIMCLRT
 70
               0
  9
$DIMTFAC
 40
1.0
  9
$DIMGAP
 40
0.09
  9
$DIMJUST
 70
               0
  9
$DIMSD1
 70
               0
  9
$DIMSD2
 70
               0
  9
$DIMTOLJ
 70
               1
  9
$DIMTZIN
 70
               0
  9
$DIMALTZ
 70
               0
  9
$DIMALTTZ
 70
               0
  9
$DIMFIT
 70
               3
  9
$DIMUPT
 70
               0
  9
$DIMUNIT
 70
               2
  9
$DIMDEC
 70
               4
  9
$DIMTDEC
 70
               4
  9
$DIMALTU
 70
               2
  9
$DIMALTTD
 70
               2
  9
$DIMTXSTY
  7
Standard
  9
$DIMAUNIT
 70
               0
  9
$LUNITS
 70
               2
  9
$LUPREC
 70
               4
  9
$SKETCHINC
 40
0.1
  9
$FILLETRAD
 40
0.0
  9
$AUNITS
 70
               0
  9
$AUPREC
 70
               0
  9
$MENU
  1
acad
  9
$ELEVATION
 40
0.0
  9
$PELEVATION
 40
0.0
  9
$THICKNESS
 40
0.0
  9
$LIMCHECK
 70
               0
  9
$BLIPMODE
 70
               1
  9
$CHAMFERA
 40
0.0
  9
$CHAMFERB
 40
0.0
  9
$CHAMFERC
 40
0.0
  9
$CHAMFERD
 40
0.0
  9
$SKPOLY
 70
               0
  9
$TDCREATE
 40
0.000000000
  9
$TDUPDATE
 40
0.000000000
  9
$TDINDWG
 40
0.0000000000
  9
$TDUSRTIMER
 40
0.0000000000
  9
$USRTIMER
 70
               1
  9
$ANGBASE
 50
0.0
  9
$ANGDIR
 70
               0
  9
$PDMODE
 70
               0
  9
$PDSIZE
 40
0.0
  9
$PLINEWID
 40
0.0
  9
$COORDS
 70
               0
  9
$SPLFRAME
 70
               0
  9
$SPLINETYPE
 70
               6
  9
$SPLINESEGS
 70
               8
  9
$ATTDIA
 70
               0
  9
$ATTREQ
 70
               1
  9
$HANDLING
 70
               1
  9
$HANDSEED
  5
15D
  9
$SURFTAB1
 70
               6
  9
$SURFTAB2
 70
               6
  9
$SURFTYPE
 70
               6
  9
$SURFU
 70
               6
  9
$SURFV
 70
               6
  9
$UCSNAME
  2

  9
$UCSORG
 10
0.0
 20
0.0
 30
0.0
  9
$UCSXDIR
 10
1.0
 20
0.0
 30
0.0
  9
$UCSYDIR
 10
0.0
 20
1.0
 30
0.0
  9
$PUCSNAME
  2

  9
$PUCSORG
 10
0.0
 20
0.0
 30
0.0
  9
$PUCSXDIR
 10
1.0
 20
0.0
 30
0.0
  9
$PUCSYDIR
 10
0.0
 20
1.0
 30
0.0
  9
$USERI1
 70
               0
  9
$USERI2
 70
               0
  9
$USERI3
 70
               0
  9
$USERI4
 70
               0
  9
$USERI5
 70
               0
  9
$USERR1
 40
0.0
  9
$USERR2
 40
0.0
  9
$USERR3
 40
0.0
  9
$USERR4
 40
0.0
  9
$USERR5
 40
0.0
  9
$WORLDVIEW
 70
               1
  9
$SHADEDGE
 70
               3
  9
$SHADEDIF
 70
              70
  9
$TILEMODE
 70
               1
  9
$MAXACTVP
 70
              16
  9
$PINSBASE
 10
0.0
 20
0.0
 30
0.0
  9
$PLIMCHECK
 70
               0
  9
$PEXTMIN
 10
1.0000000000000000E+20
 20
1.0000000000000000E+20
 30
1.0000000000000000E+20
  9
$PEXTMAX
 10
-1.0000000000000000E+20
 20
-1.0000000000000000E+20
 30
-1.0000000000000000E+20
  9
$PLIMMIN
 10
0.0
 20
0.0
  9
$PLIMMAX
 10
12.0
 20
9.0
  9
$UNITMODE
 70
               0
  9
$VISRETAIN
 70
               0
  9
$PLINEGEN
 70
               1
  9
$PSLTSCALE
 70
               0
  9
$TREEDEPTH
 70
            3020
  9
$PICKSTYLE
 70
               1
  9
$CMLSTYLE
  2
Standard
  9
$CMLJUST
 70
               0
  9
$CMLSCALE
 40
1.0
  9
$PROXYGRAPHICS
 70
               0
  9
$MEASUREMENT
 70
               0
  0
ENDSEC
  0
SECTION
  2
CLASSES
  0
CLASS
  1
LWPOLYLINE
  2
AcDbPolyline
  3
"AutoCAD"
 90
        0
280
               0
281
               1
  0
CLASS
  1
IMAGE
  2
AcDbRasterImage
  3
ISM
 90
      127
280
               0
281
               1
  0
CLASS
  1
OLE2FRAME
  2
AcDbOle2Frame
  3
""
 90
        0
280
               0
281
               1
  0
CLASS
  1
HATCH
  2
AcDbHatch
  3
"ACAD_SEDONA"
 90
        0
280
               0
281
               1
  0
CLASS
  1
DICTIONARYVAR
  2
AcDbDictionaryVar
  3
"AutoCAD"
 90
        0
280
               0
281
               0
  0
CLASS
  1
RASTERVARIABLES
  2
AcDbRasterVariables
  3
ISM
 90
        0
280
               0
281
               0
  0
CLASS
  1
IMAGEDEF
  2
AcDbRasterImageDef
  3
ISM
 90
        0
280
               0
281
               0
  0
CLASS
  1
IMAGEDEF_REACTOR
  2
AcDbRasterImageDefReactor
  3
ISM
 90
        1
280
               0
281
               0
  0
CLASS
  1
IDBUFFER
  2
AcDbIdBuffer
  3
"Acad"
 90
        0
280
               0
281
               0
  0
CLASS
  1
SPATIAL_FILTER
  2
AcDbSpatialFilter
  3
"Acad"
 90
        0
280
               0
281
               0
  0
CLASS
  1
XRECORD
  2
AcDbXrecord
  3
"<Built In>"
 90
        0
280
               0
281
               0
  0
CLASS
  1
SORTENTSTABLE
  2
AcDbSortentsTable
  3
"AutoCAD"
 90
        0
280
               0
281
               0
  0
CLASS
  1
LAYER_INDEX
  2
AcDbLayerIndex
  3
"Acad"
 90
        0
280
               0
281
               0
  0
CLASS
  1
SPATIAL_INDEX
  2
AcDbSpatialIndex
  3
"Acad"
 90
        0
280
               0
281
               0
  0
CLASS
  1
OBJECT_PTR
  2
CAseDLPNTableRecord
  3
"ASE-LPNTableRecord"
 90
        1
280
               0
281
               0
  0
CLASS
  1
LAYOUT
  2
AcDbLayout
  3
"AutoCAD 2000"
 90
        0
280
               0
281
               0
  0
CLASS
  1
PLOTSETTINGS
  2
AcDbPlotSettings
  3
"AutoCAD 2000"
 90
        0
280
               0
281
               0
  0
CLASS
  1
ACDBDICTIONARYWDFLT
  2
AcDbDictionaryWithDefault
  3
"AutoCAD 2000"
 90
        0
280
               0
281
               0
  0
CLASS
  1
ACDBPLACEHOLDER
  2
AcDbPlaceHolder
  3
"AutoCAD 2000"
 90
        0
280
               0
281
               0
  0
CLASS
  1
VBA_PROJECT
  2
AcDbVbaProject
  3
"acadvba"
 90
        0
280
               0
281
               0
  0
CLASS
  1
WIPEOUT
  2
AcDbWipeout
  3
WipeOut|AutoCAD Express Tool|expresstools@autodesk.com
 90
      127
280
               0
281
               1
  0
CLASS
  1
WIPEOUTVARIABLES
  2
AcDbWipeoutVariables
  3
WipeOut|AutoCAD Express Tool|expresstools@autodesk.com
 90
        0
280
               0
281
               0
  0
CLASS
  1
RTEXT
  2
RText
  3
RText|AutoCAD Express Tool|expresstools@autodesk.com
 90
        0
280
               0
281
               1
  0
CLASS
  1
ARCALIGNEDTEXT
  2
AcDbArcAlignedText
  3
ATEXT|AutoCAD Express Tool|expresstools@autodesk.com
 90
        0
280
               0
281
               1
  0
ENDSEC
  0
SECTION
  2
TABLES
  0
TABLE
  2
VPORT
  5
7
100
AcDbSymbolTable
 70
               1
  0
VPORT
  5
15
100
AcDbSymbolTableRecord
100
AcDbViewportTableRecord
  2
*ACTIVE
 70
               0
 10
0.0
 20
0.0
 11
1.0
 21
1.0
 12
445.50000000000045
 22
315.00000000000034
 13
0.0
 23
0.0
 14
10.0
 24
10.0
 15
10.0
 25
10.0
 16
0.0
 26
0.0
 36
1.0
 17
0.0
 27
0.0
 37
0.0
 40
630.00000000000068
 41
1.4142857142857141
 42
50.0
 43
0.0
 44
0.0
 50
0.0
 51
0.0
 71
               0
 72
             100
 73
               1
 74
               1
 75
               0
 76
               0
 77
               0
 78
               0
  0
ENDTAB
  0
TABLE
  2
LTYPE
  5
4
100
AcDbSymbolTable
 70
              24
  0
LTYPE
  5
11
100
AcDbSymbolTableRecord
100
AcDbLinetypeTableRecord
  2
ByBlock
 70
              64
  3

 72
              65
 73
               0
 40
0.0
  0
LTYPE
  5
12
100
AcDbSymbolTableRecord
100
AcDbLinetypeTableRecord
  2
ByLayer
 70
              64
  3

 72
              65
 73
               0
 40
0.0
  0
LTYPE
  5
13
100
AcDbSymbolTableRecord
100
AcDbLinetypeTableRecord
  2
Continuous
 70
              64
  3
Solid line
 72
              65
 73
               0
 40
0.0
  0
LTYPE
  5
1D
100
AcDbSymbolTableRecord
100
AcDbLinetypeTableRecord
  2
DOT
 70
              64
  3
Dot . . . . . . . . . . . . . . . . . . . . . .
 72
              65
 73
               2
 40
6.3499999999999996
 49
0.35
 74
               0
 49
-6.0
 74
               0
  0
LTYPE
  5
1E
100
AcDbSymbolTableRecord
100
AcDbLinetypeTableRecord
  2
DASHED
 70
              64
  3
Dashed __ __ __ __ __ __ __ __ __ __ __ __ __ _
 72
              65
 73
               2
 40
12.699999999999999
 49
6.3499999999999996
 74
               0
 49
-6.3499999999999996
 74
               0
  0
LTYPE
  5
1F
100
AcDbSymbolTableRecord
100
AcDbLinetypeTableRecord
  2
DASHDOT
 70
              64
  3
Dash dot __ . __ . __ . __ . __ . __ . __ . __
 72
              65
 73
               4
 40
25.399999999999999
 49
12.699999999999999
 74
               0
 49
-6.0
 74
               0
 49
0.7
 74
               0
 49
-6.0
 74
               0
  0
LTYPE
  5
20
100
AcDbSymbolTableRecord
100
AcDbLinetypeTableRecord
  2
DIVIDE
 70
              64
  3
Divide ____ . . ____ . . ____ . . ____ . . ____
 72
              65
 73
               6
 40
31.75
 49
12.699999999999999
 74
               0
 49
-6.0
 74
               0
 49
0.875
 74
               0
 49
-6.0
 74
               0
 49
0.875
 74
               0
 49
-6.0
 74
               0
  0
LTYPE
  5
21
100
AcDbSymbolTableRecord
100
AcDbLinetypeTableRecord
  2
HIDDEN
 70
              64
  3
Hidden __ __ __ __ __ __ __ __ __ __ __ __ __ _
 72
              65
 73
               2
 40
9.5250000000000004
 49
6.3499999999999996
 74
               0
 49
-3.1749999999999998
 74
               0
  0
LTYPE
  5
22
100
AcDbSymbolTableRecord
100
AcDbLinetypeTableRecord
  2
CENTER
 70
              64
  3
Center ____ _ ____ _ ____ _ ____ _ ____ _ ____
 72
              65
 73
               4
 40
50.799999999999997
 49
31.75
 74
               0
 49
-6.3499999999999996
 74
               0
 49
6.3499999999999996
 74
               0
 49
-6.3499999999999996
 74
               0
  0
LTYPE
  5
23
100
AcDbSymbolTableRecord
100
AcDbLinetypeTableRecord
  2
PHANTOM
 70
              64
  3
Phantom ______  __  __  ______  __  __  ______
 72
              65
 73
               6
 40
63.5
 49
31.75
 74
               0
 49
-6.3499999999999996
 74
               0
 49
6.3499999999999996
 74
               0
 49
-6.3499999999999996
 74
               0
 49
6.3499999999999996
 74
               0
 49
-6.3499999999999996
 74
               0
  0
LTYPE
  5
24
100
AcDbSymbolTableRecord
100
AcDbLinetypeTableRecord
  2
ACAD_ISO02W100
 70
              64
  3
ISO dash __ __ __ __ __ __ __ __ __ __ __ __ __
 72
              65
 73
               2
 40
15.0
 49
12.0
 74
               0
 49
-3.0
 74
               0
  0
LTYPE
  5
25
100
AcDbSymbolTableRecord
100
AcDbLinetypeTableRecord
  2
ACAD_ISO03W100
 70
              64
  3
ISO dash space __ __ __ __ __ __ __ __ __ __ __ __ __ __
 72
              65
 73
               2
 40
30.0
 49
12.0
 74
               0
 49
-18.0
 74
               0
  0
LTYPE
  5
26
100
AcDbSymbolTableRecord
100
AcDbLinetypeTableRecord
  2
ACAD_ISO04W100
 70
              64
  3
ISO long-dash dot ____ . ____ . ____ . ____ . _
 72
              65
 73
               4
 40
30.0
 49
24.0
 74
               0
 49
-3.0
 74
               0
 49
0.0
 74
               0
 49
-3.0
 74
               0
  0
LTYPE
  5
27
100
AcDbSymbolTableRecord
100
AcDbLinetypeTableRecord
  2
ACAD_ISO05W100
 70
              64
  3
ISO long-dash double-dot ____ .. ____ .. ____ .
 72
              65
 73
               6
 40
33.0
 49
24.0
 74
               0
 49
-3.0
 74
               0
 49
0.0
 74
               0
 49
-3.0
 74
               0
 49
0.0
 74
               0
 49
-3.0
 74
               0
  0
LTYPE
  5
28
100
AcDbSymbolTableRecord
100
AcDbLinetypeTableRecord
  2
ACAD_ISO06W100
 70
              64
  3
ISO long-dash triple-dot ____ ... ____ ... ____
 72
              65
 73
               8
 40
36.0
 49
24.0
 74
               0
 49
-3.0
 74
               0
 49
0.0
 74
               0
 49
-3.0
 74
               0
 49
0.0
 74
               0
 49
-3.0
 74
               0
 49
0.0
 74
               0
 49
-3.0
 74
               0
  0
LTYPE
  5
29
100
AcDbSymbolTableRecord
100
AcDbLinetypeTableRecord
  2
ACAD_ISO07W100
 70
              64
  3
ISO dot . . . . . . . . . . . . . . . . . . . .
 72
              65
 73
               2
 40
3.0
 49
0.0
 74
               0
 49
-3.0
 74
               0
  0
LTYPE
  5
2A
100
AcDbSymbolTableRecord
100
AcDbLinetypeTableRecord
  2
ACAD_ISO08W100
 70
              64
  3
ISO long-dash short-dash ____ __ ____ __ ____ _
 72
              65
 73
               4
 40
36.0
 49
24.0
 74
               0
 49
-3.0
 74
               0
 49
6.0
 74
               0
 49
-3.0
 74
               0
  0
LTYPE
  5
2B
100
AcDbSymbolTableRecord
100
AcDbLinetypeTableRecord
  2
ACAD_ISO09W100
 70
              64
  3
ISO long-dash double-short-dash ____ __ __ ____
 72
              65
 73
               6
 40
45.0
 49
24.0
 74
               0
 49
-3.0
 74
               0
 49
6.0
 74
               0
 49
-3.0
 74
               0
 49
6.0
 74
               0
 49
-3.0
 74
               0
  0
LTYPE
  5
2C
100
AcDbSymbolTableRecord
100
AcDbLinetypeTableRecord
  2
ACAD_ISO10W100
 70
              64
  3
ISO dash dot __ . __ . __ . __ . __ . __ . __ .
 72
              65
 73
               4
 40
18.0
 49
12.0
 74
               0
 49
-3.0
 74
               0
 49
0.0
 74
               0
 49
-3.0
 74
               0
  0
LTYPE
  5
2D
100
AcDbSymbolTableRecord
100
AcDbLinetypeTableRecord
  2
ACAD_ISO11W100
 70
              64
  3
ISO double-dash dot __ __ . __ __ . __ __ . __ 
 72
              65
 73
               6
 40
33.0
 49
12.0
 74
               0
 49
-3.0
 74
               0
 49
12.0
 74
               0
 49
-3.0
 74
               0
 49
0.0
 74
               0
 49
-3.0
 74
               0
  0
LTYPE
  5
2E
100
AcDbSymbolTableRecord
100
AcDbLinetypeTableRecord
  2
ACAD_ISO12W100
 70
              64
  3
ISO dash double-dot __ . . __ . . __ . . __ . .
 72
              65
 73
               6
 40
21.0
 49
12.0
 74
               0
 49
-3.0
 74
               0
 49
0.0
 74
               0
 49
-3.0
 74
               0
 49
0.0
 74
               0
 49
-3.0
 74
               0
  0
LTYPE
  5
2F
100
AcDbSymbolTableRecord
100
AcDbLinetypeTableRecord
  2
ACAD_ISO13W100
 70
              64
  3
ISO double-dash double-dot __ __ . . __ __ . . 
 72
              65
 73
               8
 40
36.0
 49
12.0
 74
               0
 49
-3.0
 74
               0
 49
12.0
 74
               0
 49
-3.0
 74
               0
 49
0.0
 74
               0
 49
-3.0
 74
               0
 49
0.0
 74
               0
 49
-3.0
 74
               0
  0
LTYPE
  5
30
100
AcDbSymbolTableRecord
100
AcDbLinetypeTableRecord
  2
ACAD_ISO14W100
 70
              64
  3
ISO dash triple-dot __ . . . __ . . . __ . . . 
 72
              65
 73
               8
 40
24.0
 49
12.0
 74
               0
 49
-3.0
 74
               0
 49
0.0
 74
               0
 49
-3.0
 74
               0
 49
0.0
 74
               0
 49
-3.0
 74
               0
 49
0.0
 74
               0
 49
-3.0
 74
               0
  0
LTYPE
  5
31
100
AcDbSymbolTableRecord
100
AcDbLinetypeTableRecord
  2
ACAD_ISO15W100
 70
              64
  3
ISO double-dash double-dot __ __ . . __ __ . . 
 72
              65
 73
              10
 40
39.0
 49
12.0
 74
               0
 49
-3.0
 74
               0
 49
12.0
 74
               0
 49
-3.0
 74
               0
 49
0.0
 74
               0
 49
-3.0
 74
               0
 49
0.0
 74
               0
 49
-3.0
 74
               0
 49
0.0
 74
               0
 49
-3.0
 74
               0
  0
ENDTAB
  0
TABLE
  2
LAYER
  5
2
100
AcDbSymbolTable
 70
              16
  0
LAYER
  5
14
100
AcDbSymbolTableRecord
100
AcDbLayerTableRecord
  2
0
 70
               0
 62
               7
  6
Continuous
  0
LAYER
  5
35
100
AcDbSymbolTableRecord
100
AcDbLayerTableRecord
  2
Layer00001
 70
               0
 62
               7
  6
Continuous
  0
LAYER
  5
36
100
AcDbSymbolTableRecord
100
AcDbLayerTableRecord
  2
Layer00002
 70
               0
 62
               7
  6
Continuous
  0
LAYER
  5
37
100
AcDbSymbolTableRecord
100
AcDbLayerTableRecord
  2
Layer00003
 70
               0
 62
               7
  6
Continuous
  0
LAYER
  5
38
100
AcDbSymbolTableRecord
100
AcDbLayerTableRecord
  2
Layer00004
 70
               0
 62
               7
  6
Continuous
  0
LAYER
  5
39
100
AcDbSymbolTableRecord
100
AcDbLayerTableRecord
  2
Layer00005
 70
               0
 62
               7
  6
Continuous
  0
LAYER
  5
3A
100
AcDbSymbolTableRecord
100
AcDbLayerTableRecord
  2
Layer00006
 70
               0
 62
               7
  6
Continuous
  0
LAYER
  5
3B
100
AcDbSymbolTableRecord
100
AcDbLayerTableRecord
  2
Layer00007
 70
               0
 62
               7
  6
Continuous
  0
LAYER
  5
3C
100
AcDbSymbolTableRecord
100
AcDbLayerTableRecord
  2
Layer00008
 70
               0
 62
               7
  6
Continuous
  0
LAYER
  5
3D
100
AcDbSymbolTableRecord
100
AcDbLayerTableRecord
  2
Layer00009
 70
               0
 62
               7
  6
Continuous
  0
LAYER
  5
3E
100
AcDbSymbolTableRecord
100
AcDbLayerTableRecord
  2
Layer00010
 70
               0
 62
               7
  6
Continuous
  0
LAYER
  5
3F
100
AcDbSymbolTableRecord
100
AcDbLayerTableRecord
  2
Layer00011
 70
               0
 62
               7
  6
Continuous
  0
LAYER
  5
40
100
AcDbSymbolTableRecord
100
AcDbLayerTableRecord
  2
Layer00012
 70
               0
 62
               7
  6
Continuous
  0
LAYER
  5
41
100
AcDbSymbolTableRecord
100
AcDbLayerTableRecord
  2
Layer00013
 70
               0
 62
               7
  6
Continuous
  0
LAYER
  5
42
100
AcDbSymbolTableRecord
100
AcDbLayerTableRecord
  2
Layer00014
 70
               0
 62
               7
  6
Continuous
  0
LAYER
  5
43
100
AcDbSymbolTableRecord
100
AcDbLayerTableRecord
  2
Layer00015
 70
               0
 62
               7
  6
Continuous
  0
ENDTAB
  0
TABLE
  2
STYLE
  5
3
100
AcDbSymbolTable
 70
               4
  0
STYLE
  5
17
100
AcDbSymbolTableRecord
100
AcDbTextStyleTableRecord
  2
Standard
 70
               0
 40
0.0
 41
1.0
 50
0.0
 71
               0
 42
0.0
  3
txt.shx
  4
bigfont.shx
  0
STYLE
  5
32
100
AcDbSymbolTableRecord
100
AcDbTextStyleTableRecord
  2
STANDARD_T
 70
               4
 40
0.0
 41
1.0
 50
0.0
 71
               0
 42
0.0
  3
txt.shx
  4
bigfont.shx
  0
STYLE
  5
33
100
AcDbSymbolTableRecord
100
AcDbTextStyleTableRecord
  2
FontTableH_0
 70
               0
 40
0.0
 41
1.0
 50
0.0
 71
               0
 42
0.0
  3
MS Gothic.ttf
  4

1001
ACAD
1000
MS Gothic
1071
    32817
  0
STYLE
  5
34
100
AcDbSymbolTableRecord
100
AcDbTextStyleTableRecord
  2
FontTableV_0
 70
               0
 40
0.0
 41
1.0
 50
0.0
 71
               0
 42
0.0
  3
@MS Gothic.ttf
  4

1001
ACAD
1000
@MS Gothic
1071
    32817
  0
ENDTAB
  0
TABLE
  2
VIEW
  5
5
100
AcDbSymbolTable
 70
               0
  0
ENDTAB
  0
TABLE
  2
UCS
  5
6
100
AcDbSymbolTable
 70
               0
  0
ENDTAB
  0
TABLE
  2
APPID
  5
8
100
AcDbSymbolTable
 70
               1
  0
APPID
  5
16
100
AcDbSymbolTableRecord
100
AcDbRegAppTableRecord
  2
ACAD
 70
               0
  0
ENDTAB
  0
TABLE
  2
DIMSTYLE
  5
9
100
AcDbSymbolTable
 70
               1
  0
DIMSTYLE
105
18
100
AcDbSymbolTableRecord
100
AcDbDimStyleTableRecord
  2
Standard
 70
               0
  3

  4

  5

  6

  7

 40
1.0
 41
0.18
 42
0.0625
 43
0.38
 44
0.18
 45
0.0
 46
0.0
 47
0.0
 48
0.0
 71
               0
 72
               0
 73
               1
 74
               1
 75
               0
 76
               0
 77
               0
 78
               0
140
0.18
141
0.09
142
0.0
143
25.399999999999999
144
1.0
145
0.0
146
1.0
147
0.09
170
               0
171
               2
172
               0
173
               0
174
               0
175
               0
176
               0
177
               0
178
               0
270
               2
271
               4
272
               4
273
               2
274
               2
275
               0
280
               0
281
               0
282
               0
283
               1
284
               0
285
               0
286
               0
287
               0
288
               0
340
17
  0
ENDTAB
  0
TABLE
  2
BLOCK_RECORD
  5
1
100
AcDbSymbolTable
 70
               0
  0
BLOCK_RECORD
  5
A
100
AcDbSymbolTableRecord
100
AcDbBlockTableRecord
  2
*MODEL_SPACE
  0
BLOCK_RECORD
  5
B
100
AcDbSymbolTableRecord
100
AcDbBlockTableRecord
  2
*PAPER_SPACE
  0
ENDTAB
  0
ENDSEC
  0
SECTION
  2
BLOCKS
  0
BLOCK
  5
D
100
AcDbEntity
  8
0
100
AcDbBlockBegin
  2
*MODEL_SPACE
 70
               0
 10
0.0
 20
0.0
 30
0.0
  3
*MODEL_SPACE
  1

  0
ENDBLK
  5
E
100
AcDbEntity
  8
0
100
AcDbBlockEnd
  0
BLOCK
  5
F
100
AcDbEntity
 67
               1
  8
0
100
AcDbBlockBegin
  2
*PAPER_SPACE
 70
               0
 10
0.0
 20
0.0
 30
0.0
  3
*PAPER_SPACE
  1

  0
ENDBLK
  5
10
100
AcDbEntity
 67
               1
  8
0
100
AcDbBlockEnd
  0
ENDSEC
  0
SECTION
  2
ENTITIES
  0
LINE
  5
44
100
AcDbEntity
  8
0
  6
Continuous
 62
               4
100
AcDbLine
 10
674.72088833789303
 20
348.62534884404079
 30
0.0
 11
698.72088833789303
 21
348.62534884404079
 31
0.0
  0
LINE
  5
45
100
AcDbEntity
  8
0
  6
Continuous
 62
               4
100
AcDbLine
 10
654.72088833789303
 20
308.62534884404079
 30
0.0
 11
698.72088833789303
 21
308.62534884404079
 31
0.0
  0
LINE
  5
46
100
AcDbEntity
  8
0
  6
Continuous
 62
               4
100
AcDbLine
 10
695.72088833789303
 20
348.62534884404079
 30
0.0
 11
695.72088833789303
 21
308.62534884404079
 31
0.0
  0
LINE
  5
47
100
AcDbEntity
  8
0
  6
Continuous
 62
               4
100
AcDbLine
 10
668.72088833789303
 20
356.62534884404079
 30
0.0
 11
668.72088833789303
 21
380.62534884404079
 31
0.0
  0
LINE
  5
48
100
AcDbEntity
  8
0
  6
Continuous
 62
               4
100
AcDbLine
 10
648.72088833789303
 20
354.62534884404079
 30
0.0
 11
648.72088833789303
 21
380.62534884404079
 31
0.0
  0
LINE
  5
49
100
AcDbEntity
  8
0
  6
Continuous
 62
               4
100
AcDbLine
 10
668.72088833789303
 20
377.62534884404079
 30
0.0
 11
648.72088833789303
 21
377.62534884404079
 31
0.0
  0
LINE
  5
4A
100
AcDbEntity
  8
0
  6
Continuous
 62
               4
100
AcDbLine
 10
418.7208883378928
 20
374.93708759387403
 30
0.0
 11
418.7208883378928
 21
406.62534884404079
 31
0.0
  0
LINE
  5
4B
100
AcDbEntity
  8
0
  6
Continuous
 62
               4
100
AcDbLine
 10
668.72088833789303
 20
403.62534884404079
 30
0.0
 11
418.7208883378928
 21
403.62534884404079
 31
0.0
  0
LINE
  5
4C
100
AcDbEntity
  8
0
  6
Continuous
 62
               4
100
AcDbLine
 10
166.97088833789292
 20
346.62534811317835
 30
0.0
 11
151.97084634067471
 21
346.62534628601668
 31
0.0
  0
LINE
  5
4D
100
AcDbEntity
  8
0
  6
Continuous
 62
               4
100
AcDbLine
 10
166.97088833789292
 20
328.62534811317835
 30
0.0
 11
151.97084853326237
 21
328.62534628601691
 31
0.0
  0
LINE
  5
4E
100
AcDbEntity
  8
0
  6
Continuous
 62
               4
100
AcDbLine
 10
154.97084634067471
 20
346.62534665144801
 30
0.0
 11
154.97084853326237
 21
328.62534665144824
 31
0.0
  0
LINE
  5
4F
100
AcDbEntity
  8
0
  6
Continuous
 62
               4
100
AcDbLine
 10
166.97088833789303
 20
365.62534884404067
 30
0.0
 11
151.97088833789303
 21
365.62534884404067
 31
0.0
  0
LINE
  5
50
100
AcDbEntity
  8
0
  6
Continuous
 62
               4
100
AcDbLine
 10
166.97088833789303
 20
350.62534884404056
 30
0.0
 11
151.97088833789303
 21
350.62534884404056
 31
0.0
  0
LINE
  5
51
100
AcDbEntity
  8
0
  6
Continuous
 62
               4
100
AcDbLine
 10
154.97088833789303
 20
365.62534884404067
 30
0.0
 11
154.97088833789303
 21
350.62534884404056
 31
0.0
  0
LINE
  5
52
100
AcDbEntity
  8
0
  6
Continuous
 62
               7
100
AcDbLine
 10
621.78438019893338
 20
328.62534884404079
 30
0.0
 11
639.78438019893338
 21
346.62534884404079
 31
0.0
  0
LINE
  5
53
100
AcDbEntity
  8
0
  6
Continuous
 62
               7
100
AcDbLine
 10
614.71331238706807
 20
328.62534884404079
 30
0.0
 11
632.71331238706807
 21
346.62534884404079
 31
0.0
  0
LINE
  5
54
100
AcDbEntity
  8
0
  6
Continuous
 62
               7
100
AcDbLine
 10
607.64224457520277
 20
328.62534884404079
 30
0.0
 11
625.64224457520231
 21
346.62534884404079
 31
0.0
  0
LINE
  5
55
100
AcDbEntity
  8
0
  6
Continuous
 62
               7
100
AcDbLine
 10
600.57117676333723
 20
328.62534884404079
 30
0.0
 11
618.57117676333701
 21
346.62534884404079
 31
0.0
  0
LINE
  5
56
100
AcDbEntity
  8
0
  6
Continuous
 62
               7
100
AcDbLine
 10
593.50010895147193
 20
328.62534884404079
 30
0.0
 11
611.5001089514717
 21
346.62534884404079
 31
0.0
  0
LINE
  5
57
100
AcDbEntity
  8
0
  6
Continuous
 62
               7
100
AcDbLine
 10
586.4290411396064
 20
328.62534884404079
 30
0.0
 11
604.4290411396064
 21
346.62534884404079
 31
0.0
  0
LINE
  5
58
100
AcDbEntity
  8
0
  6
Continuous
 62
               7
100
AcDbLine
 10
579.35797332774086
 20
328.62534884404079
 30
0.0
 11
597.35797332774086
 21
346.62534884404079
 31
0.0
  0
LINE
  5
59
100
AcDbEntity
  8
0
  6
Continuous
 62
               7
100
AcDbLine
 10
572.28690551587556
 20
328.62534884404079
 30
0.0
 11
590.28690551587556
 21
346.62534884404079
 31
0.0
  0
LINE
  5
5A
100
AcDbEntity
  8
0
  6
Continuous
 62
               7
100
AcDbLine
 10
565.2158377040098
 20
328.62534884404079
 30
0.0
 11
583.2158377040098
 21
346.62534884404079
 31
0.0
  0
LINE
  5
5B
100
AcDbEntity
  8
0
  6
Continuous
 62
               7
100
AcDbLine
 10
558.14476989214438
 20
328.62534884404079
 30
0.0
 11
576.1447698921445
 21
346.62534884404079
 31
0.0
  0
LINE
  5
5C
100
AcDbEntity
  8
0
  6
Continuous
 62
               7
100
AcDbLine
 10
551.07370208027885
 20
328.62534884404079
 30
0.0
 11
569.07370208027896
 21
346.62534884404079
 31
0.0
  0
LINE
  5
5D
100
AcDbEntity
  8
0
  6
Continuous
 62
               7
100
AcDbLine
 10
544.00263426841332
 20
328.62534884404079
 30
0.0
 11
562.00263426841332
 21
346.62534884404079
 31
0.0
  0
LINE
  5
5E
100
AcDbEntity
  8
0
  6
Continuous
 62
               7
100
AcDbLine
 10
536.93156645654801
 20
328.62534884404079
 30
0.0
 11
554.93156645654801
 21
346.62534884404079
 31
0.0
  0
LINE
  5
5F
100
AcDbEntity
  8
0
  6
Continuous
 62
               7
100
AcDbLine
 10
529.86049864468248
 20
328.62534884404079
 30
0.0
 11
547.86049864468248
 21
346.62534884404079
 31
0.0
  0
LINE
  5
60
100
AcDbEntity
  8
0
  6
Continuous
 62
               7
100
AcDbLine
 10
522.78943083281695
 20
328.62534884404079
 30
0.0
 11
540.78943083281695
 21
346.62534884404079
 31
0.0
  0
LINE
  5
61
100
AcDbEntity
  8
0
  6
Continuous
 62
               7
100
AcDbLine
 10
515.71836302095164
 20
328.62534884404079
 30
0.0
 11
533.71836302095164
 21
346.62534884404079
 31
0.0
  0
LINE
  5
62
100
AcDbEntity
  8
0
  6
Continuous
 62
               7
100
AcDbLine
 10
508.64729520908588
 20
328.62534884404079
 30
0.0
 11
526.64729520908588
 21
346.62534884404079
 31
0.0
  0
LINE
  5
63
100
AcDbEntity
  8
0
  6
Continuous
 62
               7
100
AcDbLine
 10
501.57622739722058
 20
328.62534884404079
 30
0.0
 11
519.57622739722058
 21
346.62534884404079
 31
0.0
  0
LINE
  5
64
100
AcDbEntity
  8
0
  6
Continuous
 62
               7
100
AcDbLine
 10
494.50515958535505
 20
328.62534884404079
 30
0.0
 11
512.50515958535505
 21
346.62534884404079
 31
0.0
  0
LINE
  5
65
100
AcDbEntity
  8
0
  6
Continuous
 62
               7
100
AcDbLine
 10
487.43409177348951
 20
328.62534884404079
 30
0.0
 11
505.43409177348951
 21
346.62534884404079
 31
0.0
  0
LINE
  5
66
100
AcDbEntity
  8
0
  6
Continuous
 62
               7
100
AcDbLine
 10
480.36302396162421
 20
328.62534884404079
 30
0.0
 11
498.36302396162421
 21
346.62534884404079
 31
0.0
  0
LINE
  5
67
100
AcDbEntity
  8
0
  6
Continuous
 62
               7
100
AcDbLine
 10
473.29195614975868
 20
328.62534884404079
 30
0.0
 11
491.29195614975868
 21
346.62534884404079
 31
0.0
  0
LINE
  5
68
100
AcDbEntity
  8
0
  6
Continuous
 62
               7
100
AcDbLine
 10
466.22089596548096
 20
328.62534884404079
 30
0.0
 11
484.22088452409946
 21
346.62534884404079
 31
0.0
  0
LINE
  5
69
100
AcDbEntity
  8
0
  6
Continuous
 62
               7
100
AcDbLine
 10
459.14982052602784
 20
328.62534884404079
 30
0.0
 11
477.14982052602784
 21
346.62534884404079
 31
0.0
  0
LINE
  5
6A
100
AcDbEntity
  8
0
  6
Continuous
 62
               7
100
AcDbLine
 10
452.07875271416208
 20
328.62534884404079
 30
0.0
 11
470.07875271416208
 21
346.62534884404079
 31
0.0
  0
LINE
  5
6B
100
AcDbEntity
  8
0
  6
Continuous
 62
               7
100
AcDbLine
 10
445.00768490229677
 20
328.62534884404079
 30
0.0
 11
463.00768490229677
 21
346.62534884404079
 31
0.0
  0
LINE
  5
6C
100
AcDbEntity
  8
0
  6
Continuous
 62
               7
100
AcDbLine
 10
437.93661709043124
 20
328.62534884404079
 30
0.0
 11
455.93661709043124
 21
346.62534884404079
 31
0.0
  0
LINE
  5
6D
100
AcDbEntity
  8
0
  6
Continuous
 62
               7
100
AcDbLine
 10
430.86554927856571
 20
328.62534884404079
 30
0.0
 11
448.86554927856571
 21
346.62534884404079
 31
0.0
  0
LINE
  5
6E
100
AcDbEntity
  8
0
  6
Continuous
 62
               7
100
AcDbLine
 10
423.7944814667004
 20
328.62534884404079
 30
0.0
 11
441.7944814667004
 21
346.62534884404079
 31
0.0
  0
LINE
  5
6F
100
AcDbEntity
  8
0
  6
Continuous
 62
               7
100
AcDbLine
 10
416.72341365483464
 20
328.62534884404079
 30
0.0
 11
434.72341365483487
 21
346.62534884404079
 31
0.0
  0
LINE
  5
70
100
AcDbEntity
  8
0
  6
Continuous
 62
               7
100
AcDbLine
 10
409.65234584296934
 20
328.62534884404079
 30
0.0
 11
427.65234584296934
 21
346.62534884404079
 31
0.0
  0
LINE
  5
71
100
AcDbEntity
  8
0
  6
Continuous
 62
               7
100
AcDbLine
 10
402.58127803110403
 20
328.62534884404079
 30
0.0
 11
420.58127803110403
 21
346.62534884404079
 31
0.0
  0
LINE
  5
72
100
AcDbEntity
  8
0
  6
Continuous
 62
               7
100
AcDbLine
 10
395.51021021923827
 20
328.62534884404079
 30
0.0
 11
413.51021021923827
 21
346.62534884404079
 31
0.0
  0
LINE
  5
73
100
AcDbEntity
  8
0
  6
Continuous
 62
               7
100
AcDbLine
 10
388.43914240737297
 20
328.62534884404079
 30
0.0
 11
406.43914240737297
 21
346.62534884404079
 31
0.0
  0
LINE
  5
74
100
AcDbEntity
  8
0
  6
Continuous
 62
               7
100
AcDbLine
 10
381.36807459550744
 20
328.62534884404079
 30
0.0
 11
399.36807459550744
 21
346.62534884404079
 31
0.0
  0
LINE
  5
75
100
AcDbEntity
  8
0
  6
Continuous
 62
               7
100
AcDbLine
 10
374.2970067836419
 20
328.62534884404079
 30
0.0
 11
392.2970067836419
 21
346.62534884404079
 31
0.0
  0
LINE
  5
76
100
AcDbEntity
  8
0
  6
Continuous
 62
               7
100
AcDbLine
 10
611.40546696772435
 20
311.92432144678071
 30
0.0
 11
611.40546696772481
 21
347.92432144678071
 31
0.0
  0
LINE
  5
77
100
AcDbEntity
  8
0
  6
Continuous
 62
               7
100
AcDbLine
 10
608.90546696772481
 20
350.42432144678048
 30
0.0
 11
608.90546696772481
 21
349.92432144678048
 31
0.0
  0
LINE
  5
78
100
AcDbEntity
  8
0
  6
Continuous
 62
               7
100
AcDbLine
 10
616.40546696772481
 20
311.92432144678071
 30
0.0
 11
616.40546696772481
 21
347.92432144678048
 31
0.0
  0
LINE
  5
79
100
AcDbEntity
  8
0
  6
Continuous
 62
               7
100
AcDbLine
 10
618.90546696772481
 20
350.42432144678048
 30
0.0
 11
618.90546696772481
 21
349.92432144678048
 31
0.0
  0
LINE
  5
7A
100
AcDbEntity
  8
0
  6
Continuous
 62
               7
100
AcDbLine
 10
608.90546696772481
 20
350.42432144678048
 30
0.0
 11
618.90546696772481
 21
350.42432144678048
 31
0.0
  0
LINE
  5
7B
100
AcDbEntity
  8
0
  6
Continuous
 62
               7
100
AcDbLine
 10
611.40546696772481
 20
347.92432144678071
 30
0.0
 11
616.40546696772481
 21
347.92432144678048
 31
0.0
  0
LINE
  5
7C
100
AcDbEntity
  8
0
  6
Continuous
 62
               7
100
AcDbLine
 10
608.90546696772481
 20
349.92432144678071
 30
0.0
 11
611.40546696772481
 21
347.92432144678071
 31
0.0
  0
LINE
  5
7D
100
AcDbEntity
  8
0
  6
Continuous
 62
               7
100
AcDbLine
 10
616.40546696772481
 20
347.92432144678048
 30
0.0
 11
618.90546696772481
 21
349.92432144678048
 31
0.0
  0
LINE
  5
7E
100
AcDbEntity
  8
0
  6
Continuous
 62
               7
100
AcDbLine
 10
608.90546696772481
 20
349.92432144678048
 30
0.0
 11
618.90546696772481
 21
349.92432144678048
 31
0.0
  0
LINE
  5
7F
100
AcDbEntity
  8
0
  6
Continuous
 62
               7
100
AcDbLine
 10
611.40546696772435
 20
311.92432144678071
 30
0.0
 11
613.90546696772481
 21
310.42432144678071
 31
0.0
  0
LINE
  5
80
100
AcDbEntity
  8
0
  6
Continuous
 62
               7
100
AcDbLine
 10
616.40546696772481
 20
311.92432144678071
 30
0.0
 11
613.90546696772481
 21
310.42432144678071
 31
0.0
  0
LINE
  5
81
100
AcDbEntity
  8
0
  6
Continuous
 62
               7
100
AcDbLine
 10
611.40546696772481
 20
340.92432144678071
 30
0.0
 11
616.40546696772481
 21
342.92432144678048
 31
0.0
  0
LINE
  5
82
100
AcDbEntity
  8
0
  6
Continuous
 62
               7
100
AcDbLine
 10
611.40546696772481
 20
338.92432144678071
 30
0.0
 11
616.40546696772481
 21
340.92432144678048
 31
0.0
  0
LINE
  5
83
100
AcDbEntity
  8
0
  6
Continuous
 62
               7
100
AcDbLine
 10
611.40546696772481
 20
336.92432144678071
 30
0.0
 11
616.40546696772481
 21
338.92432144678071
 31
0.0
  0
LINE
  5
84
100
AcDbEntity
  8
0
  6
Continuous
 62
               7
100
AcDbLine
 10
611.40546696772481
 20
334.92432144678071
 30
0.0
 11
616.40546696772481
 21
336.92432144678071
 31
0.0
  0
LINE
  5
85
100
AcDbEntity
  8
0
  6
Continuous
 62
               7
100
AcDbLine
 10
611.40546696772481
 20
332.92432144678071
 30
0.0
 11
616.40546696772481
 21
334.92432144678071
 31
0.0
  0
LINE
  5
86
100
AcDbEntity
  8
0
  6
Continuous
 62
               7
100
AcDbLine
 10
611.40546696772481
 20
330.92432144678071
 30
0.0
 11
616.40546696772481
 21
332.92432144678071
 31
0.0
  0
LINE
  5
87
100
AcDbEntity
  8
0
  6
Continuous
 62
               7
100
AcDbLine
 10
611.40546696772481
 20
328.92432144678071
 30
0.0
 11
616.40546696772481
 21
330.92432144678071
 31
0.0
  0
LINE
  5
88
100
AcDbEntity
  8
0
  6
Continuous
 62
               7
100
AcDbLine
 10
611.40546696772435
 20
326.92432144678071
 30
0.0
 11
616.40546696772481
 21
328.92432144678071
 31
0.0
  0
LINE
  5
89
100
AcDbEntity
  8
0
  6
Continuous
 62
               7
100
AcDbLine
 10
611.40546696772435
 20
324.92432144678071
 30
0.0
 11
616.40546696772481
 21
326.92432144678071
 31
0.0
  0
LINE
  5
8A
100
AcDbEntity
  8
0
  6
Continuous
 62
               7
100
AcDbLine
 10
611.40546696772435
 20
322.92432144678071
 30
0.0
 11
616.40546696772481
 21
324.92432144678071
 31
0.0
  0
LINE
  5
8B
100
AcDbEntity
  8
0
  6
Continuous
 62
               7
100
AcDbLine
 10
611.40546696772435
 20
320.92432144678071
 30
0.0
 11
616.40546696772481
 21
322.92432144678071
 31
0.0
  0
LINE
  5
8C
100
AcDbEntity
  8
0
  6
Continuous
 62
               7
100
AcDbLine
 10
611.40546696772435
 20
318.92432144678094
 30
0.0
 11
614.40546696772481
 21
320.12432144678098
 31
0.0
  0
LINE
  5
8D
100
AcDbEntity
  8
0
  6
Continuous
 62
               7
100
AcDbLine
 10
615.90546696772481
 20
312.42432144678071
 30
0.0
 11
615.90546696772481
 21
320.72432144678089
 31
0.0
  0
LINE
  5
8E
100
AcDbEntity
  8
0
  6
Continuous
 62
               7
100
AcDbLine
 10
614.40546696772481
 20
320.12432144678075
 30
0.0
 11
615.45546696772453
 21
321.17432144678094
 31
0.0
  0
LINE
  5
8F
100
AcDbEntity
  8
0
  6
Continuous
 62
               7
100
AcDbLine
 10
615.90546696772481
 20
320.72432144678089
 30
0.0
 11
615.45546696772453
 21
321.17432144678094
 31
0.0
  0
LINE
  5
90
100
AcDbEntity
  8
0
  6
Continuous
 62
               7
100
AcDbLine
 10
615.90546696772481
 20
320.72432144678089
 30
0.0
 11
616.40546696772481
 21
320.92432144678071
 31
0.0
  0
LINE
  5
91
100
AcDbEntity
  8
0
  6
Continuous
 62
               7
100
AcDbLine
 10
616.40546696772481
 20
311.92432144678071
 30
0.0
 11
615.90546696772481
 21
312.42432144678071
 31
0.0
  0
LINE
  5
92
100
AcDbEntity
  8
0
  6
Continuous
 62
               7
100
AcDbLine
 10
331.87059991244917
 20
328.62534884404079
 30
0.0
 11
349.87059991244917
 21
346.62534884404079
 31
0.0
  0
LINE
  5
93
100
AcDbEntity
  8
0
  6
Continuous
 62
               7
100
AcDbLine
 10
324.79953210058363
 20
328.62534884404079
 30
0.0
 11
342.79953210058363
 21
346.62534884404079
 31
0.0
  0
LINE
  5
94
100
AcDbEntity
  8
0
  6
Continuous
 62
               7
100
AcDbLine
 10
317.7284642887181
 20
328.62534884404079
 30
0.0
 11
335.7284642887181
 21
346.62534884404079
 31
0.0
  0
LINE
  5
95
100
AcDbEntity
  8
0
  6
Continuous
 62
               7
100
AcDbLine
 10
310.6573964768528
 20
328.62534884404079
 30
0.0
 11
328.6573964768528
 21
346.62534884404079
 31
0.0
  0
LINE
  5
96
100
AcDbEntity
  8
0
  6
Continuous
 62
               7
100
AcDbLine
 10
303.58632866498704
 20
328.62534884404079
 30
0.0
 11
321.58632866498704
 21
346.62534884404079
 31
0.0
  0
LINE
  5
97
100
AcDbEntity
  8
0
  6
Continuous
 62
               7
100
AcDbLine
 10
296.51526085312173
 20
328.62534884404079
 30
0.0
 11
314.51526085312173
 21
346.62534884404079
 31
0.0
  0
LINE
  5
98
100
AcDbEntity
  8
0
  6
Continuous
 62
               6
100
AcDbLine
 10
575.72088833789326
 20
308.62534879635689
 30
0.0
 11
578.02088829020954
 21
308.62534879635689
 31
0.0
  0
LINE
  5
99
100
AcDbEntity
  8
0
  6
Continuous
 62
               6
100
AcDbLine
 10
578.02088829020954
 20
248.62534879635686
 30
0.0
 11
575.72088833789326
 21
248.62534879635686
 31
0.0
  0
LINE
  5
9A
100
AcDbEntity
  8
0
  6
Continuous
 62
               6
100
AcDbLine
 10
574.72087615685064
 20
328.62534867454667
 30
0.0
 11
574.72088833789326
 21
228.62534867454642
 31
0.0
  0
LINE
  5
9B
100
AcDbEntity
  8
0
  6
Continuous
 62
               6
100
AcDbLine
 10
578.02088829020954
 20
230.92534874867314
 30
0.0
 11
578.02088829020954
 21
248.62534879635686
 31
0.0
  0
LINE
  5
9C
100
AcDbEntity
  8
0
  6
Continuous
 62
               6
100
AcDbLine
 10
623.42088838557675
 20
230.92534874867314
 30
0.0
 11
578.02088829020954
 21
230.92534874867314
 31
0.0
  0
LINE
  5
9D
100
AcDbEntity
  8
0
  6
Continuous
 62
               6
100
AcDbLine
 10
623.42088838557675
 20
326.32534884404083
 30
0.0
 11
623.42088838557675
 21
230.92534874867314
 31
0.0
  0
LINE
  5
9E
100
AcDbEntity
  8
0
  6
Continuous
 62
               6
100
AcDbLine
 10
578.02088829020954
 20
326.32534884404083
 30
0.0
 11
623.42088838557675
 21
326.32534884404083
 31
0.0
  0
LINE
  5
9F
100
AcDbEntity
  8
0
  6
Continuous
 62
               6
100
AcDbLine
 10
578.02088829020954
 20
326.32534884404083
 30
0.0
 11
578.02088829020954
 21
308.62534879635689
 31
0.0
  0
LINE
  5
A0
100
AcDbEntity
  8
0
  6
Continuous
 62
               6
100
AcDbLine
 10
575.72088833789326
 20
326.32534879635716
 30
0.0
 11
575.72088833789326
 21
308.62534879635689
 31
0.0
  0
LINE
  5
A1
100
AcDbEntity
  8
0
  6
Continuous
 62
               6
100
AcDbLine
 10
623.4208883378933
 20
328.62534879635712
 30
0.0
 11
578.02088833789321
 21
328.62534879635712
 31
0.0
  0
LINE
  5
A2
100
AcDbEntity
  8
0
  6
Continuous
 62
               6
100
AcDbLine
 10
625.72088833789303
 20
230.92534879635681
 30
0.0
 11
625.72088833789303
 21
326.32534879635716
 31
0.0
  0
LINE
  5
A3
100
AcDbEntity
  8
0
  6
Continuous
 62
               6
100
AcDbLine
 10
578.02088833789321
 20
228.62534879635686
 30
0.0
 11
623.42088833789285
 21
228.62534879635686
 31
0.0
  0
LINE
  5
A4
100
AcDbEntity
  8
0
  6
Continuous
 62
               6
100
AcDbLine
 10
575.72088833789326
 20
230.92534879635681
 30
0.0
 11
575.72088833789326
 21
248.62534879635686
 31
0.0
  0
LINE
  5
A5
100
AcDbEntity
  8
0
  6
Continuous
 62
               7
100
AcDbLine
 10
625.72088833789303
 20
326.32534879635716
 30
0.0
 11
640.72088833789303
 21
326.32534879635716
 31
0.0
  0
LINE
  5
A6
100
AcDbEntity
  8
0
  6
Continuous
 62
               3
100
AcDbLine
 10
640.72088833789303
 20
328.62534884404079
 30
0.0
 11
640.72088833789303
 21
346.62534884404079
 31
0.0
  0
LINE
  5
A7
100
AcDbEntity
  8
0
  6
Continuous
 62
               7
100
AcDbLine
 10
640.72088833789303
 20
333.41972135926915
 30
0.0
 11
635.92651582266444
 21
328.62534884404079
 31
0.0
  0
LINE
  5
A8
100
AcDbEntity
  8
0
  6
Continuous
 62
               7
100
AcDbLine
 10
640.72088833789303
 20
340.49078917113468
 30
0.0
 11
628.85544801079914
 21
328.62534884404079
 31
0.0
  0
LINE
  5
A9
100
AcDbEntity
  8
0
  6
Continuous
 62
               2
100
AcDbLine
 10
643.72088833789303
 20
288.62534884404079
 30
0.0
 11
643.72088833789303
 21
348.62534884404079
 31
0.0
  0
LINE
  5
AA
100
AcDbEntity
  8
0
  6
Continuous
 62
               2
100
AcDbLine
 10
640.75283905781271
 20
297.8170180086255
 30
0.0
 11
642.72088833789257
 21
288.62534884404079
 31
0.0
  0
LINE
  5
AB
100
AcDbEntity
  8
0
  6
Continuous
 62
               7
100
AcDbLine
 10
640.72088833789303
 20
128.6253487963568
 30
0.0
 11
640.72088833789303
 21
326.32534879635716
 31
0.0
  0
LINE
  5
AC
100
AcDbEntity
  8
0
  6
Continuous
 62
               7
100
AcDbLine
 10
625.72088833789303
 20
128.6253487963568
 30
0.0
 11
640.72088833789303
 21
128.6253487963568
 31
0.0
  0
LINE
  5
AD
100
AcDbEntity
  8
0
  6
Continuous
 62
               7
100
AcDbLine
 10
625.72088833789303
 20
128.6253487963568
 30
0.0
 11
625.72088833789303
 21
326.32534879635716
 31
0.0
  0
LINE
  5
AE
100
AcDbEntity
  8
0
  6
Continuous
 62
               4
100
AcDbLine
 10
643.72088833789303
 20
298.08704538920767
 30
0.0
 11
646.79906962782388
 21
289.62981180213444
 31
0.0
  0
LINE
  5
AF
100
AcDbEntity
  8
0
  6
Continuous
 62
               4
100
AcDbLine
 10
643.72088833789303
 20
298.08704538920767
 30
0.0
 11
649.50597682507168
 21
291.19264540113693
 31
0.0
  0
LINE
  5
B0
100
AcDbEntity
  8
0
  6
Continuous
 62
               4
100
AcDbLine
 10
675.9645410029284
 20
242.23940075176264
 30
0.0
 11
643.72088833789303
 21
298.08704538920767
 31
0.0
  0
LINE
  5
B1
100
AcDbEntity
  8
0
  6
Continuous
 62
               7
100
AcDbLine
 10
360.15487115991084
 20
328.62534884404079
 30
0.0
 11
378.15487115991107
 21
346.62534884404079
 31
0.0
  0
LINE
  5
B2
100
AcDbEntity
  8
0
  6
Continuous
 62
               7
100
AcDbLine
 10
353.08380334804554
 20
328.62534884404079
 30
0.0
 11
371.08380334804554
 21
346.62534884404079
 31
0.0
  0
LINE
  5
B3
100
AcDbEntity
  8
0
  6
Continuous
 62
               7
100
AcDbLine
 10
367.22593897177637
 20
328.62534884404079
 30
0.0
 11
385.2259389717766
 21
346.62534884404079
 31
0.0
  0
LINE
  5
B4
100
AcDbEntity
  8
0
  6
Continuous
 62
               7
100
AcDbLine
 10
356.94166772431447
 20
346.62534884404079
 30
0.0
 11
338.94166772431447
 21
328.62534884404079
 31
0.0
  0
LINE
  5
B5
100
AcDbEntity
  8
0
  6
Continuous
 62
               7
100
AcDbLine
 10
364.01273553618
 20
346.62534884404079
 30
0.0
 11
346.01273553618
 21
328.62534884404079
 31
0.0
  0
LINE
  5
B6
100
AcDbEntity
  8
0
  6
Continuous
 62
               4
100
AcDbLine
 10
757.38002914686967
 20
242.23940075176264
 30
0.0
 11
675.9645410029284
 21
242.23940075176264
 31
0.0
  0
LINE
  5
B7
100
AcDbEntity
  8
0
  6
Continuous
 62
               2
100
AcDbLine
 10
643.72088833789326
 20
348.62534884404079
 30
0.0
 11
543.7208883378928
 21
348.62534884404079
 31
0.0
  0
LINE
  5
B8
100
AcDbEntity
  8
0
  6
Continuous
 62
               2
100
AcDbLine
 10
668.72088833789303
 20
348.62534884404079
 30
0.0
 11
648.72088833789303
 21
348.62534884404079
 31
0.0
  0
LINE
  5
B9
100
AcDbEntity
  8
0
  6
Continuous
 62
               2
100
AcDbLine
 10
548.72088833789303
 20
349.62534884404067
 30
0.0
 11
668.72088833789303
 21
349.62534884404079
 31
0.0
  0
LINE
  5
BA
100
AcDbEntity
  8
0
  6
Continuous
 62
               2
100
AcDbLine
 10
648.72088833789303
 20
308.62534884404079
 30
0.0
 11
648.72088833789303
 21
348.62534884404079
 31
0.0
  0
LINE
  5
BB
100
AcDbEntity
  8
0
  6
Continuous
 62
               2
100
AcDbLine
 10
645.75283905781271
 20
317.8170180086255
 30
0.0
 11
647.72088833789303
 21
308.62534884404079
 31
0.0
  0
LINE
  5
BC
100
AcDbEntity
  8
0
  6
Continuous
 62
               4
100
AcDbLine
 10
648.72088833789303
 20
328.62534884404079
 30
0.0
 11
651.79906962782434
 21
337.08258243111402
 31
0.0
  0
LINE
  5
BD
100
AcDbEntity
  8
0
  6
Continuous
 62
               4
100
AcDbLine
 10
648.72088833789303
 20
328.62534884404079
 30
0.0
 11
654.50597682507214
 21
335.51974883211176
 31
0.0
  0
LINE
  5
BE
100
AcDbEntity
  8
0
  6
Continuous
 62
               4
100
AcDbLine
 10
685.54935366395239
 20
392.4141219535644
 30
0.0
 11
648.72088833789303
 21
328.62534884404079
 31
0.0
  0
LINE
  5
BF
100
AcDbEntity
  8
0
  6
Continuous
 62
               4
100
AcDbLine
 10
756.98871095464347
 20
392.4141219535644
 30
0.0
 11
685.54935366395239
 21
392.4141219535644
 31
0.0
  0
LINE
  5
C0
100
AcDbEntity
  8
0
  6
Continuous
 62
               2
100
AcDbLine
 10
668.72088833789303
 20
347.62534884404067
 30
0.0
 11
650.72397211617022
 21
347.29217245187613
 31
0.0
  0
LINE
  5
C1
100
AcDbEntity
  8
0
  6
Continuous
 62
               7
100
AcDbLine
 10
597.57880624613381
 20
310.80856140409742
 30
0.0
 11
597.57880624613426
 21
346.80856140409742
 31
0.0
  0
LINE
  5
C2
100
AcDbEntity
  8
0
  6
Continuous
 62
               7
100
AcDbLine
 10
595.07880624613426
 20
349.30856140409742
 30
0.0
 11
595.07880624613426
 21
348.80856140409742
 31
0.0
  0
LINE
  5
C3
100
AcDbEntity
  8
0
  6
Continuous
 62
               7
100
AcDbLine
 10
602.57880624613381
 20
310.80856140409742
 30
0.0
 11
602.57880624613426
 21
346.80856140409742
 31
0.0
  0
LINE
  5
C4
100
AcDbEntity
  8
0
  6
Continuous
 62
               7
100
AcDbLine
 10
605.07880624613404
 20
349.30856140409742
 30
0.0
 11
605.07880624613404
 21
348.80856140409742
 31
0.0
  0
LINE
  5
C5
100
AcDbEntity
  8
0
  6
Continuous
 62
               7
100
AcDbLine
 10
595.07880624613426
 20
349.30856140409742
 30
0.0
 11
605.07880624613404
 21
349.30856140409742
 31
0.0
  0
LINE
  5
C6
100
AcDbEntity
  8
0
  6
Continuous
 62
               7
100
AcDbLine
 10
597.57880624613426
 20
346.80856140409742
 30
0.0
 11
602.57880624613426
 21
346.80856140409742
 31
0.0
  0
LINE
  5
C7
100
AcDbEntity
  8
0
  6
Continuous
 62
               7
100
AcDbLine
 10
595.07880624613426
 20
348.80856140409742
 30
0.0
 11
597.57880624613426
 21
346.80856140409742
 31
0.0
  0
LINE
  5
C8
100
AcDbEntity
  8
0
  6
Continuous
 62
               7
100
AcDbLine
 10
602.57880624613426
 20
346.80856140409742
 30
0.0
 11
605.07880624613404
 21
348.80856140409742
 31
0.0
  0
LINE
  5
C9
100
AcDbEntity
  8
0
  6
Continuous
 62
               7
100
AcDbLine
 10
595.07880624613426
 20
348.80856140409742
 30
0.0
 11
605.07880624613404
 21
348.80856140409742
 31
0.0
  0
LINE
  5
CA
100
AcDbEntity
  8
0
  6
Continuous
 62
               7
100
AcDbLine
 10
597.57880624613381
 20
310.80856140409742
 30
0.0
 11
600.07880624613381
 21
309.30856140409742
 31
0.0
  0
LINE
  5
CB
100
AcDbEntity
  8
0
  6
Continuous
 62
               7
100
AcDbLine
 10
602.57880624613381
 20
310.80856140409742
 30
0.0
 11
600.07880624613381
 21
309.30856140409742
 31
0.0
  0
LINE
  5
CC
100
AcDbEntity
  8
0
  6
Continuous
 62
               7
100
AcDbLine
 10
597.57880624613426
 20
339.80856140409742
 30
0.0
 11
602.57880624613426
 21
341.80856140409742
 31
0.0
  0
LINE
  5
CD
100
AcDbEntity
  8
0
  6
Continuous
 62
               7
100
AcDbLine
 10
597.57880624613426
 20
337.80856140409742
 30
0.0
 11
602.57880624613426
 21
339.80856140409742
 31
0.0
  0
LINE
  5
CE
100
AcDbEntity
  8
0
  6
Continuous
 62
               7
100
AcDbLine
 10
597.57880624613426
 20
335.80856140409742
 30
0.0
 11
602.57880624613426
 21
337.80856140409742
 31
0.0
  0
LINE
  5
CF
100
AcDbEntity
  8
0
  6
Continuous
 62
               7
100
AcDbLine
 10
597.57880624613426
 20
333.80856140409742
 30
0.0
 11
602.57880624613426
 21
335.80856140409742
 31
0.0
  0
LINE
  5
D0
100
AcDbEntity
  8
0
  6
Continuous
 62
               7
100
AcDbLine
 10
597.57880624613426
 20
331.80856140409742
 30
0.0
 11
602.57880624613426
 21
333.80856140409742
 31
0.0
  0
LINE
  5
D1
100
AcDbEntity
  8
0
  6
Continuous
 62
               7
100
AcDbLine
 10
597.57880624613404
 20
329.80856140409742
 30
0.0
 11
602.57880624613404
 21
331.80856140409742
 31
0.0
  0
LINE
  5
D2
100
AcDbEntity
  8
0
  6
Continuous
 62
               7
100
AcDbLine
 10
597.57880624613404
 20
327.80856140409742
 30
0.0
 11
602.57880624613404
 21
329.80856140409742
 31
0.0
  0
LINE
  5
D3
100
AcDbEntity
  8
0
  6
Continuous
 62
               7
100
AcDbLine
 10
597.57880624613404
 20
325.80856140409742
 30
0.0
 11
602.57880624613404
 21
327.80856140409765
 31
0.0
  0
LINE
  5
D4
100
AcDbEntity
  8
0
  6
Continuous
 62
               7
100
AcDbLine
 10
597.57880624613381
 20
323.80856140409742
 30
0.0
 11
602.57880624613404
 21
325.80856140409742
 31
0.0
  0
LINE
  5
D5
100
AcDbEntity
  8
0
  6
Continuous
 62
               7
100
AcDbLine
 10
597.57880624613381
 20
321.80856140409742
 30
0.0
 11
602.57880624613381
 21
323.80856140409742
 31
0.0
  0
LINE
  5
D6
100
AcDbEntity
  8
0
  6
Continuous
 62
               7
100
AcDbLine
 10
597.57880624613381
 20
319.80856140409742
 30
0.0
 11
602.57880624613381
 21
321.80856140409742
 31
0.0
  0
LINE
  5
D7
100
AcDbEntity
  8
0
  6
Continuous
 62
               7
100
AcDbLine
 10
597.57880624613381
 20
317.80856140409742
 30
0.0
 11
600.57880624613404
 21
319.00856140409769
 31
0.0
  0
LINE
  5
D8
100
AcDbEntity
  8
0
  6
Continuous
 62
               7
100
AcDbLine
 10
602.07880624613381
 20
311.30856140409742
 30
0.0
 11
602.07880624613404
 21
319.6085614040976
 31
0.0
  0
LINE
  5
D9
100
AcDbEntity
  8
0
  6
Continuous
 62
               7
100
AcDbLine
 10
600.57880624613404
 20
319.00856140409746
 30
0.0
 11
601.62880624613399
 21
320.05856140409765
 31
0.0
  0
LINE
  5
DA
100
AcDbEntity
  8
0
  6
Continuous
 62
               7
100
AcDbLine
 10
602.07880624613404
 20
319.6085614040976
 30
0.0
 11
601.62880624613399
 21
320.05856140409765
 31
0.0
  0
LINE
  5
DB
100
AcDbEntity
  8
0
  6
Continuous
 62
               7
100
AcDbLine
 10
602.07880624613404
 20
319.6085614040976
 30
0.0
 11
602.57880624613381
 21
319.80856140409742
 31
0.0
  0
LINE
  5
DC
100
AcDbEntity
  8
0
  6
Continuous
 62
               7
100
AcDbLine
 10
602.57880624613381
 20
310.80856140409742
 30
0.0
 11
602.07880624613381
 21
311.30856140409742
 31
0.0
  0
LINE
  5
DD
100
AcDbEntity
  8
0
  6
Continuous
 62
               4
100
AcDbLine
 10
668.72088833789303
 20
406.62534884404079
 30
0.0
 11
668.72088833789303
 21
356.62534884404079
 31
0.0
  0
LINE
  5
DE
100
AcDbEntity
  8
0
  6
Continuous
 62
               4
100
AcDbLine
 10
527.4490499875385
 20
467.65477634352521
 30
0.0
 11
425.70197386624
 21
467.65477634352521
 31
0.0
  0
LINE
  5
DF
100
AcDbEntity
  8
0
  6
Continuous
 62
               4
100
AcDbLine
 10
527.4490499875385
 20
452.65477634352521
 30
0.0
 11
417.04171982839534
 21
452.65477634352521
 31
0.0
  0
LINE
  5
E0
100
AcDbEntity
  8
0
  6
Continuous
 62
               4
100
AcDbLine
 10
527.4490499875385
 20
482.65477634352521
 30
0.0
 11
434.36222790408442
 21
482.65477634352521
 31
0.0
  0
LINE
  5
E1
100
AcDbEntity
  8
0
  6
Continuous
 62
               4
100
AcDbLine
 10
434.36222790408442
 20
482.65477634352521
 30
0.0
 11
350.6294488968399
 21
337.62534884404067
 31
0.0
  0
LINE
  5
E2
100
AcDbEntity
  8
0
  6
Continuous
 62
               6
100
AcDbLine
 10
172.97088833789289
 20
248.62534884404053
 30
0.0
 11
574.72088590168482
 21
248.62534884404053
 31
0.0
  0
LINE
  5
E3
100
AcDbEntity
  8
0
  6
DASHED
 62
               6
100
AcDbLine
 10
172.97088833789289
 20
230.92534884404049
 30
0.0
 11
574.72088805772933
 21
230.92534884404049
 31
0.0
  0
LINE
  5
E4
100
AcDbEntity
  8
0
  6
Continuous
 62
               6
100
AcDbLine
 10
172.97088833789289
 20
228.62534884404053
 30
0.0
 11
574.72088833789326
 21
228.62534884404053
 31
0.0
  0
LINE
  5
E5
100
AcDbEntity
  8
0
  6
Continuous
 62
               6
100
AcDbLine
 10
172.97088833789289
 20
308.6253488440405
 30
0.0
 11
574.72087859305907
 21
308.6253488440405
 31
0.0
  0
LINE
  5
E6
100
AcDbEntity
  8
0
  6
DASHED
 62
               6
100
AcDbLine
 10
172.97088833789292
 20
326.32534884404117
 30
0.0
 11
574.72087643701457
 21
326.32534884404078
 31
0.0
  0
LINE
  5
E7
100
AcDbEntity
  8
0
  6
Continuous
 62
               3
100
AcDbLine
 10
172.97088833789289
 20
328.62534884404073
 30
0.0
 11
640.72088833789303
 21
328.62534884404073
 31
0.0
  0
LINE
  5
E8
100
AcDbEntity
  8
0
  6
Continuous
 62
               3
100
AcDbLine
 10
172.97088833789289
 20
346.62534884404079
 30
0.0
 11
640.72088833789303
 21
346.62534884404079
 31
0.0
  0
LINE
  5
E9
100
AcDbEntity
  8
0
  6
DASHED
 62
               6
100
AcDbLine
 10
172.97088833789289
 20
347.62534884404079
 30
0.0
 11
640.72088833789303
 21
347.62534884404079
 31
0.0
  0
LINE
  5
EA
100
AcDbEntity
  8
0
  6
Continuous
 62
               7
100
AcDbLine
 10
307.4441930412562
 20
346.62534884404079
 30
0.0
 11
289.4441930412562
 21
328.62534884404073
 31
0.0
  0
LINE
  5
EB
100
AcDbEntity
  8
0
  6
Continuous
 62
               7
100
AcDbLine
 10
282.37312522939067
 20
328.62534884404067
 30
0.0
 11
300.37312522939067
 21
346.62534884404079
 31
0.0
  0
LINE
  5
EC
100
AcDbEntity
  8
0
  6
Continuous
 62
               7
100
AcDbLine
 10
275.30205741752525
 20
328.62534884404067
 30
0.0
 11
293.30205741752536
 21
346.62534884404079
 31
0.0
  0
LINE
  5
ED
100
AcDbEntity
  8
0
  6
Continuous
 62
               7
100
AcDbLine
 10
286.23098960565977
 20
346.62534884404079
 30
0.0
 11
268.23098960565977
 21
328.62534884404067
 31
0.0
  0
LINE
  5
EE
100
AcDbEntity
  8
0
  6
Continuous
 62
               7
100
AcDbLine
 10
261.15992179379424
 20
328.62534884404067
 30
0.0
 11
279.15992179379424
 21
346.62534884404079
 31
0.0
  0
LINE
  5
EF
100
AcDbEntity
  8
0
  6
Continuous
 62
               7
100
AcDbLine
 10
254.08885398192885
 20
328.62534884404067
 30
0.0
 11
272.08885398192893
 21
346.62534884404079
 31
0.0
  0
LINE
  5
F0
100
AcDbEntity
  8
0
  6
Continuous
 62
               7
100
AcDbLine
 10
265.0177861700634
 20
346.62534884404073
 30
0.0
 11
247.0177861700634
 21
328.62534884404067
 31
0.0
  0
LINE
  5
F1
100
AcDbEntity
  8
0
  6
Continuous
 62
               7
100
AcDbLine
 10
239.94671835819787
 20
328.62534884404062
 30
0.0
 11
257.94671835819787
 21
346.62534884404073
 31
0.0
  0
LINE
  5
F2
100
AcDbEntity
  8
0
  6
Continuous
 62
               7
100
AcDbLine
 10
232.87565054633248
 20
328.62534884404062
 30
0.0
 11
250.87565054633257
 21
346.62534884404073
 31
0.0
  0
LINE
  5
F3
100
AcDbEntity
  8
0
  6
Continuous
 62
               7
100
AcDbLine
 10
243.804582734467
 20
346.62534884404067
 30
0.0
 11
225.804582734467
 21
328.62534884404062
 31
0.0
  0
LINE
  5
F4
100
AcDbEntity
  8
0
  6
Continuous
 62
               7
100
AcDbLine
 10
218.73351492260147
 20
328.62534884404056
 30
0.0
 11
236.73351492260147
 21
346.62534884404067
 31
0.0
  0
LINE
  5
F5
100
AcDbEntity
  8
0
  6
Continuous
 62
               7
100
AcDbLine
 10
211.66244711073608
 20
328.62534884404056
 30
0.0
 11
229.66244711073617
 21
346.62534884404067
 31
0.0
  0
LINE
  5
F6
100
AcDbEntity
  8
0
  6
Continuous
 62
               7
100
AcDbLine
 10
222.59137929887058
 20
346.62534884404062
 30
0.0
 11
204.59137929887058
 21
328.62534884404056
 31
0.0
  0
LINE
  5
F7
100
AcDbEntity
  8
0
  6
Continuous
 62
               7
100
AcDbLine
 10
197.52031148700505
 20
328.62534884404056
 30
0.0
 11
215.52031148700505
 21
346.62534884404062
 31
0.0
  0
LINE
  5
F8
100
AcDbEntity
  8
0
  6
Continuous
 62
               7
100
AcDbLine
 10
190.44924367513966
 20
328.62534884404056
 30
0.0
 11
208.44924367513974
 21
346.62534884404062
 31
0.0
  0
LINE
  5
F9
100
AcDbEntity
  8
0
  6
Continuous
 62
               7
100
AcDbLine
 10
201.37817586327418
 20
346.62534884404056
 30
0.0
 11
183.37817586327418
 21
328.62534884404056
 31
0.0
  0
LINE
  5
FA
100
AcDbEntity
  8
0
  6
Continuous
 62
               7
100
AcDbLine
 10
176.30710805140865
 20
328.6253488440405
 30
0.0
 11
194.30710805140865
 21
346.62534884404056
 31
0.0
  0
LINE
  5
FB
100
AcDbEntity
  8
0
  6
Continuous
 62
               7
100
AcDbLine
 10
172.97088833789289
 20
339.43126475425561
 30
0.0
 11
180.16497242767775
 21
346.6253488440405
 31
0.0
  0
LINE
  5
FC
100
AcDbEntity
  8
0
  6
Continuous
 62
               7
100
AcDbLine
 10
172.97088833789292
 20
332.36019694239008
 30
0.0
 11
187.23604023954334
 21
346.62534884404056
 31
0.0
  0
LINE
  5
FD
100
AcDbEntity
  8
0
  6
Continuous
 62
               2
100
AcDbLine
 10
429.72088833789138
 20
359.29522182512079
 30
0.0
 11
427.22088833789275
 21
363.62534884404073
 31
0.0
  0
LINE
  5
FE
100
AcDbEntity
  8
0
  6
Continuous
 62
               2
100
AcDbLine
 10
419.22088833789297
 20
365.62534884404096
 30
0.0
 11
414.24654668886768
 21
351.28346272704908
 31
0.0
  0
LINE
  5
FF
100
AcDbEntity
  8
0
  6
Continuous
 62
               2
100
AcDbLine
 10
415.07444172933259
 20
350.77179545429368
 30
0.0
 11
427.22088833789297
 21
363.62534884404027
 31
0.0
  0
LINE
  5
100
100
AcDbEntity
  8
0
  6
Continuous
 62
               2
100
AcDbLine
 10
576.72088833789303
 20
365.62534884404096
 30
0.0
 11
419.22088833789297
 21
365.62534884404096
 31
0.0
  0
LINE
  5
101
100
AcDbEntity
  8
0
  6
Continuous
 62
               2
100
AcDbLine
 10
448.47088833789297
 20
349.62534884404096
 30
0.0
 11
431.22088833789297
 21
349.62534884404096
 31
0.0
  0
LINE
  5
102
100
AcDbEntity
  8
0
  6
Continuous
 62
               2
100
AcDbLine
 10
443.72088833789297
 20
350.12534884404096
 30
0.0
 11
448.47088833789297
 21
350.12534884404096
 31
0.0
  0
LINE
  5
103
100
AcDbEntity
  8
0
  6
Continuous
 62
               2
100
AcDbLine
 10
430.72088833789297
 20
364.62534884404096
 30
0.0
 11
430.72088833789297
 21
350.62534884404096
 31
0.0
  0
LINE
  5
104
100
AcDbEntity
  8
0
  6
Continuous
 62
               2
100
AcDbLine
 10
431.22088833789275
 20
365.12534884404096
 30
0.0
 11
431.22088833789297
 21
349.62534884404096
 31
0.0
  0
LINE
  5
105
100
AcDbEntity
  8
0
  6
Continuous
 62
               2
100
AcDbLine
 10
419.47088833789297
 20
365.12534884404096
 30
0.0
 11
431.22088833789275
 21
365.12534884404096
 31
0.0
  0
LINE
  5
106
100
AcDbEntity
  8
0
  6
Continuous
 62
               2
100
AcDbLine
 10
419.47088833789297
 20
364.62534884404096
 30
0.0
 11
430.72088833789297
 21
364.62534884404096
 31
0.0
  0
LINE
  5
107
100
AcDbEntity
  8
0
  6
Continuous
 62
               2
100
AcDbLine
 10
256.72088833789303
 20
350.6253488440405
 30
0.0
 11
430.72088833789297
 21
350.62534884404096
 31
0.0
  0
LINE
  5
108
100
AcDbEntity
  8
0
  6
Continuous
 62
               2
100
AcDbLine
 10
256.72088833789303
 20
350.6253488440405
 30
0.0
 11
251.72088833789303
 21
365.62534884404073
 31
0.0
  0
LINE
  5
109
100
AcDbEntity
  8
0
  6
Continuous
 62
               2
100
AcDbLine
 10
172.97088833789303
 20
365.62534884404067
 30
0.0
 11
251.72088833789303
 21
365.62534884404067
 31
0.0
  0
LINE
  5
10A
100
AcDbEntity
  8
0
  6
Continuous
 62
               2
100
AcDbLine
 10
581.72088833789303
 20
350.62534884404067
 30
0.0
 11
576.72088833789303
 21
365.62534884404096
 31
0.0
  0
LINE
  5
10B
100
AcDbEntity
  8
0
  6
Continuous
 62
               2
100
AcDbLine
 10
581.72088833789303
 20
350.62534884404067
 30
0.0
 11
668.72088833789303
 21
350.62534884404067
 31
0.0
  0
LINE
  5
10C
100
AcDbEntity
  8
0
  6
Continuous
 62
               4
100
AcDbLine
 10
418.7208883378928
 20
403.62534884404079
 30
0.0
 11
172.97088833789303
 21
403.62534884404079
 31
0.0
  0
LINE
  5
10D
100
AcDbEntity
  8
0
  6
Continuous
 62
               4
100
AcDbLine
 10
172.97088833789329
 20
403.62534884404079
 30
0.0
 11
181.83415811500313
 21
405.18818244304327
 31
0.0
  0
LINE
  5
10E
100
AcDbEntity
  8
0
  6
Continuous
 62
               4
100
AcDbLine
 10
172.97088833789329
 20
403.62534884404079
 30
0.0
 11
181.83415811500313
 21
402.0625152450383
 31
0.0
  0
LINE
  5
10F
100
AcDbEntity
  8
0
  6
Continuous
 62
               7
100
AcDbLine
 10
435.31487683783689
 20
311.93699163982501
 30
0.0
 11
435.31487683783735
 21
347.93699163982501
 31
0.0
  0
LINE
  5
110
100
AcDbEntity
  8
0
  6
Continuous
 62
               7
100
AcDbLine
 10
432.81487683783735
 20
350.43699163982501
 30
0.0
 11
432.81487683783735
 21
349.93699163982501
 31
0.0
  0
LINE
  5
111
100
AcDbEntity
  8
0
  6
Continuous
 62
               7
100
AcDbLine
 10
440.31487683783689
 20
311.93699163982501
 30
0.0
 11
440.31487683783735
 21
347.93699163982501
 31
0.0
  0
LINE
  5
112
100
AcDbEntity
  8
0
  6
Continuous
 62
               7
100
AcDbLine
 10
442.81487683783712
 20
350.43699163982501
 30
0.0
 11
442.81487683783712
 21
349.93699163982501
 31
0.0
  0
LINE
  5
113
100
AcDbEntity
  8
0
  6
Continuous
 62
               7
100
AcDbLine
 10
432.81487683783735
 20
350.43699163982501
 30
0.0
 11
442.81487683783712
 21
350.43699163982501
 31
0.0
  0
LINE
  5
114
100
AcDbEntity
  8
0
  6
Continuous
 62
               7
100
AcDbLine
 10
435.31487683783735
 20
347.93699163982501
 30
0.0
 11
440.31487683783735
 21
347.93699163982501
 31
0.0
  0
LINE
  5
115
100
AcDbEntity
  8
0
  6
Continuous
 62
               7
100
AcDbLine
 10
432.81487683783735
 20
349.93699163982501
 30
0.0
 11
435.31487683783735
 21
347.93699163982501
 31
0.0
  0
LINE
  5
116
100
AcDbEntity
  8
0
  6
Continuous
 62
               7
100
AcDbLine
 10
440.31487683783735
 20
347.93699163982501
 30
0.0
 11
442.81487683783712
 21
349.93699163982501
 31
0.0
  0
LINE
  5
117
100
AcDbEntity
  8
0
  6
Continuous
 62
               7
100
AcDbLine
 10
432.81487683783735
 20
349.93699163982501
 30
0.0
 11
442.81487683783712
 21
349.93699163982501
 31
0.0
  0
LINE
  5
118
100
AcDbEntity
  8
0
  6
Continuous
 62
               7
100
AcDbLine
 10
435.31487683783689
 20
311.93699163982501
 30
0.0
 11
437.81487683783689
 21
310.43699163982501
 31
0.0
  0
LINE
  5
119
100
AcDbEntity
  8
0
  6
Continuous
 62
               7
100
AcDbLine
 10
440.31487683783689
 20
311.93699163982501
 30
0.0
 11
437.81487683783689
 21
310.43699163982501
 31
0.0
  0
LINE
  5
11A
100
AcDbEntity
  8
0
  6
Continuous
 62
               7
100
AcDbLine
 10
435.31487683783735
 20
340.93699163982501
 30
0.0
 11
440.31487683783735
 21
342.93699163982501
 31
0.0
  0
LINE
  5
11B
100
AcDbEntity
  8
0
  6
Continuous
 62
               7
100
AcDbLine
 10
435.31487683783735
 20
338.93699163982501
 30
0.0
 11
440.31487683783735
 21
340.93699163982501
 31
0.0
  0
LINE
  5
11C
100
AcDbEntity
  8
0
  6
Continuous
 62
               7
100
AcDbLine
 10
435.31487683783735
 20
336.93699163982501
 30
0.0
 11
440.31487683783735
 21
338.93699163982501
 31
0.0
  0
LINE
  5
11D
100
AcDbEntity
  8
0
  6
Continuous
 62
               7
100
AcDbLine
 10
435.31487683783735
 20
334.93699163982501
 30
0.0
 11
440.31487683783735
 21
336.93699163982501
 31
0.0
  0
LINE
  5
11E
100
AcDbEntity
  8
0
  6
Continuous
 62
               7
100
AcDbLine
 10
435.31487683783735
 20
332.93699163982501
 30
0.0
 11
440.31487683783735
 21
334.93699163982501
 31
0.0
  0
LINE
  5
11F
100
AcDbEntity
  8
0
  6
Continuous
 62
               7
100
AcDbLine
 10
435.31487683783712
 20
330.93699163982501
 30
0.0
 11
440.31487683783712
 21
332.93699163982501
 31
0.0
  0
LINE
  5
120
100
AcDbEntity
  8
0
  6
Continuous
 62
               7
100
AcDbLine
 10
435.31487683783712
 20
328.93699163982501
 30
0.0
 11
440.31487683783712
 21
330.93699163982501
 31
0.0
  0
LINE
  5
121
100
AcDbEntity
  8
0
  6
Continuous
 62
               7
100
AcDbLine
 10
435.31487683783712
 20
326.93699163982501
 30
0.0
 11
440.31487683783712
 21
328.93699163982524
 31
0.0
  0
LINE
  5
122
100
AcDbEntity
  8
0
  6
Continuous
 62
               7
100
AcDbLine
 10
435.31487683783689
 20
324.93699163982501
 30
0.0
 11
440.31487683783712
 21
326.93699163982501
 31
0.0
  0
LINE
  5
123
100
AcDbEntity
  8
0
  6
Continuous
 62
               7
100
AcDbLine
 10
435.31487683783689
 20
322.93699163982501
 30
0.0
 11
440.31487683783689
 21
324.93699163982501
 31
0.0
  0
LINE
  5
124
100
AcDbEntity
  8
0
  6
Continuous
 62
               7
100
AcDbLine
 10
435.31487683783689
 20
320.93699163982501
 30
0.0
 11
440.31487683783689
 21
322.93699163982501
 31
0.0
  0
LINE
  5
125
100
AcDbEntity
  8
0
  6
Continuous
 62
               7
100
AcDbLine
 10
435.31487683783689
 20
318.93699163982501
 30
0.0
 11
438.31487683783712
 21
320.13699163982528
 31
0.0
  0
LINE
  5
126
100
AcDbEntity
  8
0
  6
Continuous
 62
               7
100
AcDbLine
 10
439.81487683783689
 20
312.43699163982501
 30
0.0
 11
439.81487683783712
 21
320.73699163982519
 31
0.0
  0
LINE
  5
127
100
AcDbEntity
  8
0
  6
Continuous
 62
               7
100
AcDbLine
 10
438.31487683783712
 20
320.13699163982506
 30
0.0
 11
439.36487683783707
 21
321.18699163982524
 31
0.0
  0
LINE
  5
128
100
AcDbEntity
  8
0
  6
Continuous
 62
               7
100
AcDbLine
 10
439.81487683783712
 20
320.73699163982519
 30
0.0
 11
439.36487683783707
 21
321.18699163982524
 31
0.0
  0
LINE
  5
129
100
AcDbEntity
  8
0
  6
Continuous
 62
               7
100
AcDbLine
 10
439.81487683783712
 20
320.73699163982519
 30
0.0
 11
440.31487683783689
 21
320.93699163982501
 31
0.0
  0
LINE
  5
12A
100
AcDbEntity
  8
0
  6
Continuous
 62
               7
100
AcDbLine
 10
440.31487683783689
 20
311.93699163982501
 30
0.0
 11
439.81487683783689
 21
312.43699163982501
 31
0.0
  0
LINE
  5
12B
100
AcDbEntity
  8
0
  6
Continuous
 62
               4
100
AcDbLine
 10
714.78679656440374
 20
21.213203435595119
 30
0.0
 11
714.78679656440374
 21
41.213203435595119
 31
0.0
  0
LINE
  5
12C
100
AcDbEntity
  8
0
  6
Continuous
 62
               4
100
AcDbLine
 10
864.78679656440374
 20
21.213203435595119
 30
0.0
 11
714.78679656440374
 21
21.213203435595119
 31
0.0
  0
LINE
  5
12D
100
AcDbEntity
  8
0
  6
Continuous
 62
               4
100
AcDbLine
 10
864.78679656440374
 20
41.213203435595119
 30
0.0
 11
864.78679656440374
 21
21.213203435595119
 31
0.0
  0
LINE
  5
12E
100
AcDbEntity
  8
0
  6
Continuous
 62
               4
100
AcDbLine
 10
864.78679656440374
 20
41.213203435595119
 30
0.0
 11
714.78679656440374
 21
41.213203435595119
 31
0.0
  0
LINE
  5
12F
100
AcDbEntity
  8
0
  6
Continuous
 62
               4
100
AcDbLine
 10
14.142135623730949
 20
595.85786437626768
 30
0.0
 11
14.142135623730949
 21
615.85786437626768
 31
0.0
  0
LINE
  5
130
100
AcDbEntity
  8
0
  6
Continuous
 62
               4
100
AcDbLine
 10
164.14213562373095
 20
595.85786437626768
 30
0.0
 11
14.142135623730949
 21
595.85786437626768
 31
0.0
  0
LINE
  5
131
100
AcDbEntity
  8
0
  6
Continuous
 62
               4
100
AcDbLine
 10
164.14213562373095
 20
615.85786437626768
 30
0.0
 11
164.14213562373095
 21
595.85786437626768
 31
0.0
  0
LINE
  5
132
100
AcDbEntity
  8
0
  6
Continuous
 62
               4
100
AcDbLine
 10
164.14213562373095
 20
615.85786437626768
 30
0.0
 11
14.142135623730949
 21
615.85786437626768
 31
0.0
  0
CIRCLE
  5
133
100
AcDbEntity
  8
0
  6
Continuous
 62
               4
100
AcDbCircle
 10
695.72088833789303
 20
348.62534884404079
 30
0.0
 40
1.500000000000002
  0
CIRCLE
  5
134
100
AcDbEntity
  8
0
  6
Continuous
 62
               4
100
AcDbCircle
 10
695.72088833789303
 20
308.62534884404079
 30
0.0
 40
1.500000000000002
  0
CIRCLE
  5
135
100
AcDbEntity
  8
0
  6
Continuous
 62
               4
100
AcDbCircle
 10
668.72088833789303
 20
377.62534884404079
 30
0.0
 40
1.500000000000002
  0
CIRCLE
  5
136
100
AcDbEntity
  8
0
  6
Continuous
 62
               4
100
AcDbCircle
 10
648.72088833789303
 20
377.62534884404079
 30
0.0
 40
1.500000000000002
  0
CIRCLE
  5
137
100
AcDbEntity
  8
0
  6
Continuous
 62
               4
100
AcDbCircle
 10
668.72088833789303
 20
403.62534884404079
 30
0.0
 40
1.500000000000002
  0
CIRCLE
  5
138
100
AcDbEntity
  8
0
  6
Continuous
 62
               4
100
AcDbCircle
 10
418.7208883378928
 20
403.62534884404079
 30
0.0
 40
1.500000000000002
  0
CIRCLE
  5
139
100
AcDbEntity
  8
0
  6
Continuous
 62
               4
100
AcDbCircle
 10
154.97084634067471
 20
346.62534665144801
 30
0.0
 40
1.500000000000002
  0
CIRCLE
  5
13A
100
AcDbEntity
  8
0
  6
Continuous
 62
               4
100
AcDbCircle
 10
154.97084853326237
 20
328.62534665144824
 30
0.0
 40
1.500000000000002
  0
CIRCLE
  5
13B
100
AcDbEntity
  8
0
  6
Continuous
 62
               4
100
AcDbCircle
 10
154.97088833789303
 20
365.62534884404067
 30
0.0
 40
1.5
  0
CIRCLE
  5
13C
100
AcDbEntity
  8
0
  6
Continuous
 62
               4
100
AcDbCircle
 10
154.97088833789303
 20
350.62534884404056
 30
0.0
 40
1.5
  0
CIRCLE
  5
13D
100
AcDbEntity
  8
0
  6
Continuous
 62
               4
100
AcDbCircle
 10
418.7208883378928
 20
403.62534884404079
 30
0.0
 40
1.500000000000002
  0
CIRCLE
  5
13E
100
AcDbEntity
  8
0
  6
Continuous
 62
               4
100
AcDbCircle
 10
350.62944889683979
 20
337.62534884404067
 30
0.0
 40
1.5
  0
CIRCLE
  5
13F
100
AcDbEntity
  8
0
  6
Continuous
 62
               4
100
AcDbCircle
 10
356.98030185792561
 20
348.62534884404067
 30
0.0
 40
1.5
  0
CIRCLE
  5
140
100
AcDbEntity
  8
0
  6
Continuous
 62
               4
100
AcDbCircle
 10
358.71235266549445
 20
351.62534884404067
 30
0.0
 40
1.5
  0
ARC
  5
141
100
AcDbEntity
  8
0
  6
Continuous
 62
               7
100
AcDbCircle
 10
584.44637024721828
 20
318.55826790641038
 30
0.0
 40
30.0
100
AcDbArc
 50
344.86278517270802
 51
2.9923020128758626
  0
ARC
  5
142
100
AcDbEntity
  8
0
  6
Continuous
 62
               6
100
AcDbCircle
 10
578.02088833789321
 20
326.32534879635716
 30
0.0
 40
2.2999999999999998
100
AcDbArc
 50
90.000000000000028
 51
180.0
  0
ARC
  5
143
100
AcDbEntity
  8
0
  6
Continuous
 62
               6
100
AcDbCircle
 10
623.4208883378933
 20
326.32534879635716
 30
0.0
 40
2.2999999999999998
100
AcDbArc
 50
0.0
 51
90.000000000000028
  0
ARC
  5
144
100
AcDbEntity
  8
0
  6
Continuous
 62
               6
100
AcDbCircle
 10
623.42088833789285
 20
230.92534879635681
 30
0.0
 40
2.2999999999999998
100
AcDbArc
 50
270.0
 51
0.0
  0
ARC
  5
145
100
AcDbEntity
  8
0
  6
Continuous
 62
               6
100
AcDbCircle
 10
578.02088833789321
 20
230.92534879635681
 30
0.0
 40
2.2999999999999998
100
AcDbArc
 50
180.0
 51
270.0
  0
ARC
  5
146
100
AcDbEntity
  8
0
  6
Continuous
 62
               2
100
AcDbCircle
 10
643.22088833789257
 20
288.62534884404079
 30
0.0
 40
0.499999999999972
100
AcDbArc
 50
179.99999999998045
 51
0.0
  0
ARC
  5
147
100
AcDbEntity
  8
0
  6
Continuous
 62
               2
100
AcDbCircle
 10
648.22088833789303
 20
308.62534884404079
 30
0.0
 40
0.499999999999972
100
AcDbArc
 50
179.99999999998045
 51
0.0
  0
ARC
  5
148
100
AcDbEntity
  8
0
  6
Continuous
 62
               2
100
AcDbCircle
 10
668.72088833789303
 20
349.12534884404067
 30
0.0
 40
0.499999999999972
100
AcDbArc
 50
270.0
 51
90.0
  0
ARC
  5
149
100
AcDbEntity
  8
0
  6
Continuous
 62
               2
100
AcDbCircle
 10
668.72088833789303
 20
349.12534884404067
 30
0.0
 40
1.500000000000002
100
AcDbArc
 50
270.0
 51
90.0
  0
ARC
  5
14A
100
AcDbEntity
  8
0
  6
Continuous
 62
               7
100
AcDbCircle
 10
570.61970952562751
 20
317.44250786372709
 30
0.0
 40
30.0
100
AcDbArc
 50
344.86278517270802
 51
2.9923020128758626
  0
ARC
  5
14B
100
AcDbEntity
  8
0
  6
Continuous
 62
               2
100
AcDbCircle
 10
414.72088833789297
 20
351.12534884404073
 30
0.0
 40
0.500000000000003
100
AcDbArc
 50
161.56505117707695
 51
315.00000013714862
  0
ARC
  5
14C
100
AcDbEntity
  8
0
  6
Continuous
 62
               2
100
AcDbCircle
 10
448.47088833789297
 20
349.87534884404096
 30
0.0
 40
0.25
100
AcDbArc
 50
270.0
 51
90.0
  0
ARC
  5
14D
100
AcDbEntity
  8
0
  6
Continuous
 62
               2
100
AcDbCircle
 10
419.47088833789297
 20
364.87534884404096
 30
0.0
 40
0.249999999999943
100
AcDbArc
 50
90.000000000000028
 51
270.0
  0
ARC
  5
14E
100
AcDbEntity
  8
0
  6
Continuous
 62
               7
100
AcDbCircle
 10
408.3557801173306
 20
318.57093809945468
 30
0.0
 40
30.0
100
AcDbArc
 50
344.86278517270802
 51
2.9923020128758626
  0
TEXT
  5
14F
100
AcDbEntity
  8
0
 62
               7
100
AcDbText
 10
695.72088833789303
 20
322.62534884404079
 30
0.0
 40
12.000000000000012
  1
40
 50
90.000000000000028
 41
0.7695
  7
FontTableH_0
 72
               5
 11
695.72088833789303
 21
334.62534884404079
 31
0.0
100
AcDbText
  0
TEXT
  5
150
100
AcDbEntity
  8
0
 62
               7
100
AcDbText
 10
652.72088833789303
 20
377.62534884404079
 30
0.0
 40
12.000000000000012
  1
20
 41
0.7695
  7
FontTableH_0
 72
               5
 11
664.72088833789303
 21
377.62534884404079
 31
0.0
100
AcDbText
  0
TEXT
  5
151
100
AcDbEntity
  8
0
 62
               7
100
AcDbText
 10
154.97088833789303
 20
352.12534884404062
 30
0.0
 40
12.000000000000012
  1
15
 50
90.000000000000028
 41
0.7695
  7
FontTableH_0
 72
               5
 11
154.97088833789303
 21
364.12534884404062
 31
0.0
100
AcDbText
  0
TEXT
  5
152
100
AcDbEntity
  8
0
 62
               7
100
AcDbText
 10
682.52173785485184
 20
243.74224829931686
 30
0.0
 40
12.000000000000012
  1
ケラバ水切り
 41
0.7695
  7
FontTableH_0
 72
               5
 11
754.52173785485195
 21
243.74224829931686
 31
0.0
100
AcDbText
  0
TEXT
  5
153
100
AcDbEntity
  8
0
 62
               7
100
AcDbText
 10
693.20367518988314
 20
393.9156659703159
 30
0.0
 40
12.000000000000012
  1
ケラバ唐草
 41
0.7695
  7
FontTableH_0
 72
               5
 11
753.20367518988326
 21
393.9156659703159
 31
0.0
100
AcDbText
  0
TEXT
  5
154
100
AcDbEntity
  8
0
 62
               7
100
AcDbText
 10
495.72088833789297
 20
403.62534884404079
 30
0.0
 40
12.000000000000012
  1
(割付により調整)
 41
0.7695
  7
FontTableH_0
 72
               5
 11
591.72088833789303
 21
403.62534884404079
 31
0.0
100
AcDbText
  0
TEXT
  5
155
100
AcDbEntity
  8
0
 62
               7
100
AcDbText
 10
443.37369705067226
 20
484.15642942637885
 30
0.0
 40
12.000000000000012
  1
屋根本体
 41
0.7695
  7
FontTableH_0
 72
               5
 11
491.37369705067232
 21
484.15642942637885
 31
0.0
100
AcDbText
  0
TEXT
  5
156
100
AcDbEntity
  8
0
 62
               7
100
AcDbText
 10
443.37369705067226
 20
469.15642942637885
 30
0.0
 40
12.000000000000183
  1
ルーフィング
 41
0.7695
  7
FontTableH_0
 72
               5
 11
515.37369705067238
 21
469.15642942637885
 31
0.0
100
AcDbText
  0
TEXT
  5
157
100
AcDbEntity
  8
0
 62
               7
100
AcDbText
 10
443.37369705067226
 20
454.15526975840987
 30
0.0
 40
11.999999999999842
  1
野地板
 41
0.7695
  7
FontTableH_0
 72
               5
 11
479.37369705067232
 21
454.15526975840987
 31
0.0
100
AcDbText
  0
TEXT
  5
158
100
AcDbEntity
  8
0
 62
               7
100
AcDbText
 10
154.97084818141525
 20
331.51382698577135
 30
0.0
 40
12.000000000000016
  1
18
 50
90.000006979223173
 41
0.7695
  7
FontTableH_0
 72
               5
 11
154.97084671969017
 21
343.51382698577123
 31
0.0
100
AcDbText
  0
TEXT
  5
159
100
AcDbEntity
  8
0
 62
               7
100
AcDbText
 10
283.84588833789292
 20
403.62534884404079
 30
0.0
 40
12.000000000000012
  1
@325
 41
0.7695
  7
FontTableH_0
 72
               5
 11
307.84588833789292
 21
403.62534884404079
 31
0.0
100
AcDbText
  0
TEXT
  5
15A
100
AcDbEntity
  8
0
 62
               7
100
AcDbText
 10
41.892136875428378
 20
601.35786449547697
 30
0.0
 40
8.9999997615814422
  1
ハーパーズルーフ Y165
 41
0.7695
  7
FontTableH_0
 72
               5
 11
136.39213437203352
 21
601.35786449547697
 31
0.0
100
AcDbText
  0
TEXT
  5
15B
100
AcDbEntity
  8
0
 62
               7
100
AcDbText
 10
740.28679787570559
 20
26.713203554804398
 30
0.0
 40
8.9999997615814422
  1
ケラバ詳細図 【S=1/3】
 41
0.7695
  7
FontTableH_0
 72
               5
 11
839.28679525310145
 21
26.713203554804398
 31
0.0
100
AcDbText
  0
ENDSEC
  0
SECTION
  2
OBJECTS
  0
DICTIONARY
  5
19
100
AcDbDictionary
  3
ACAD_GROUP
350
1A
  3
ACAD_MLINESTYLE
350
1B
  3
DWGPROPS
350
15C
  0
DICTIONARY
  5
1A
102
{ACAD_REACTORS
330
19
102
}
100
AcDbDictionary
  0
DICTIONARY
  5
1B
102
{ACAD_REACTORS
330
19
102
}
100
AcDbDictionary
  3
STANDARD
350
1C
  0
MLINESTYLE
  5
1C
102
{ACAD_REACTORS
330
1B
102
}
100
AcDbMlineStyle
  2
Standard
 70
               0
  3

 62
               0
 51
90.0
 52
90.0
 71
               2
 49
0.5
 62
             256
  6
ByLayer
 49
-0.5
 62
             256
  6
ByLayer
  0
XRECORD
  5
15C
100
AcDbXrecord
  1
DWGPROPS COOKIE
  2

  3

  4

  6

  7

  0
ENDSEC
  0
EOF
