  0
SECTION
  2
HEADER
  9
$ACADVER
  1
AC1014
  9
$ACADMAINTVER
 70
               0
  9
$DWGCODEPAGE
  3
ANSI_932
  9
$INSBASE
 10
0.0
 20
0.0
 30
0.0
  9
$EXTMIN
 10
0.0
 20
0.0
 30
0.0
  9
$EXTMAX
 10
891.00000000000091
 20
630.00000000000068
 30
0.0
  9
$LIMMIN
 10
0.0
 20
0.0
  9
$LIMMAX
 10
891.00000000000091
 20
630.00000000000068
  9
$ORTHOMODE
 70
               0
  9
$REGENMODE
 70
               1
  9
$FILLMODE
 70
               1
  9
$QTEXTMODE
 70
               0
  9
$MIRRTEXT
 70
               1
  9
$DRAGMODE
 70
               2
  9
$LTSCALE
 40
3.0000000000000031
  9
$OSMODE
 70
               0
  9
$ATTMODE
 70
               1
  9
$TEXTSIZE
 40
0.2
  9
$TRACEWID
 40
0.05
  9
$TEXTSTYLE
  7
Standard
  9
$CLAYER
  8
0
  9
$CELTYPE
  6
Continuous
  9
$CECOLOR
 62
             256
  9
$CELTSCALE
 40
1.0
  9
$DELOBJ
 70
               1
  9
$DISPSILH
 70
               0
  9
$DIMSCALE
 40
1.0
  9
$DIMASZ
 40
0.18
  9
$DIMEXO
 40
0.0625
  9
$DIMDLI
 40
0.38
  9
$DIMRND
 40
0.0
  9
$DIMDLE
 40
0.0
  9
$DIMEXE
 40
0.18
  9
$DIMTP
 40
0.0
  9
$DIMTM
 40
0.0
  9
$DIMTXT
 40
0.18
  9
$DIMCEN
 40
0.09
  9
$DIMTSZ
 40
0.0
  9
$DIMTOL
 70
               0
  9
$DIMLIM
 70
               0
  9
$DIMTIH
 70
               1
  9
$DIMTOH
 70
               1
  9
$DIMSE1
 70
               0
  9
$DIMSE2
 70
               0
  9
$DIMTAD
 70
               0
  9
$DIMZIN
 70
               0
  9
$DIMBLK
  1

  9
$DIMASO
 70
               1
  9
$DIMSHO
 70
               1
  9
$DIMPOST
  1

  9
$DIMAPOST
  1

  9
$DIMALT
 70
               0
  9
$DIMALTD
 70
               2
  9
$DIMALTF
 40
25.399999999999999
  9
$DIMLFAC
 40
1.0
  9
$DIMTOFL
 70
               0
  9
$DIMTVP
 40
0.0
  9
$DIMTIX
 70
               0
  9
$DIMSOXD
 70
               0
  9
$DIMSAH
 70
               0
  9
$DIMBLK1
  1

  9
$DIMBLK2
  1

  9
$DIMSTYLE
  2
Standard
  9
$DIMCLRD
 70
               0
  9
$DIMCLRE
 70
               0
  9
$DIMCLRT
 70
               0
  9
$DIMTFAC
 40
1.0
  9
$DIMGAP
 40
0.09
  9
$DIMJUST
 70
               0
  9
$DIMSD1
 70
               0
  9
$DIMSD2
 70
               0
  9
$DIMTOLJ
 70
               1
  9
$DIMTZIN
 70
               0
  9
$DIMALTZ
 70
               0
  9
$DIMALTTZ
 70
               0
  9
$DIMFIT
 70
               3
  9
$DIMUPT
 70
               0
  9
$DIMUNIT
 70
               2
  9
$DIMDEC
 70
               4
  9
$DIMTDEC
 70
               4
  9
$DIMALTU
 70
               2
  9
$DIMALTTD
 70
               2
  9
$DIMTXSTY
  7
Standard
  9
$DIMAUNIT
 70
               0
  9
$LUNITS
 70
               2
  9
$LUPREC
 70
               4
  9
$SKETCHINC
 40
0.1
  9
$FILLETRAD
 40
0.0
  9
$AUNITS
 70
               0
  9
$AUPREC
 70
               0
  9
$MENU
  1
acad
  9
$ELEVATION
 40
0.0
  9
$PELEVATION
 40
0.0
  9
$THICKNESS
 40
0.0
  9
$LIMCHECK
 70
               0
  9
$BLIPMODE
 70
               1
  9
$CHAMFERA
 40
0.0
  9
$CHAMFERB
 40
0.0
  9
$CHAMFERC
 40
0.0
  9
$CHAMFERD
 40
0.0
  9
$SKPOLY
 70
               0
  9
$TDCREATE
 40
0.000000000
  9
$TDUPDATE
 40
0.000000000
  9
$TDINDWG
 40
0.0000000000
  9
$TDUSRTIMER
 40
0.0000000000
  9
$USRTIMER
 70
               1
  9
$ANGBASE
 50
0.0
  9
$ANGDIR
 70
               0
  9
$PDMODE
 70
               0
  9
$PDSIZE
 40
0.0
  9
$PLINEWID
 40
0.0
  9
$COORDS
 70
               0
  9
$SPLFRAME
 70
               0
  9
$SPLINETYPE
 70
               6
  9
$SPLINESEGS
 70
               8
  9
$ATTDIA
 70
               0
  9
$ATTREQ
 70
               1
  9
$HANDLING
 70
               1
  9
$HANDSEED
  5
162
  9
$SURFTAB1
 70
               6
  9
$SURFTAB2
 70
               6
  9
$SURFTYPE
 70
               6
  9
$SURFU
 70
               6
  9
$SURFV
 70
               6
  9
$UCSNAME
  2

  9
$UCSORG
 10
0.0
 20
0.0
 30
0.0
  9
$UCSXDIR
 10
1.0
 20
0.0
 30
0.0
  9
$UCSYDIR
 10
0.0
 20
1.0
 30
0.0
  9
$PUCSNAME
  2

  9
$PUCSORG
 10
0.0
 20
0.0
 30
0.0
  9
$PUCSXDIR
 10
1.0
 20
0.0
 30
0.0
  9
$PUCSYDIR
 10
0.0
 20
1.0
 30
0.0
  9
$USERI1
 70
               0
  9
$USERI2
 70
               0
  9
$USERI3
 70
               0
  9
$USERI4
 70
               0
  9
$USERI5
 70
               0
  9
$USERR1
 40
0.0
  9
$USERR2
 40
0.0
  9
$USERR3
 40
0.0
  9
$USERR4
 40
0.0
  9
$USERR5
 40
0.0
  9
$WORLDVIEW
 70
               1
  9
$SHADEDGE
 70
               3
  9
$SHADEDIF
 70
              70
  9
$TILEMODE
 70
               1
  9
$MAXACTVP
 70
              16
  9
$PINSBASE
 10
0.0
 20
0.0
 30
0.0
  9
$PLIMCHECK
 70
               0
  9
$PEXTMIN
 10
1.0000000000000000E+20
 20
1.0000000000000000E+20
 30
1.0000000000000000E+20
  9
$PEXTMAX
 10
-1.0000000000000000E+20
 20
-1.0000000000000000E+20
 30
-1.0000000000000000E+20
  9
$PLIMMIN
 10
0.0
 20
0.0
  9
$PLIMMAX
 10
12.0
 20
9.0
  9
$UNITMODE
 70
               0
  9
$VISRETAIN
 70
               0
  9
$PLINEGEN
 70
               1
  9
$PSLTSCALE
 70
               0
  9
$TREEDEPTH
 70
            3020
  9
$PICKSTYLE
 70
               1
  9
$CMLSTYLE
  2
Standard
  9
$CMLJUST
 70
               0
  9
$CMLSCALE
 40
1.0
  9
$PROXYGRAPHICS
 70
               0
  9
$MEASUREMENT
 70
               0
  0
ENDSEC
  0
SECTION
  2
CLASSES
  0
CLASS
  1
LWPOLYLINE
  2
AcDbPolyline
  3
"AutoCAD"
 90
        0
280
               0
281
               1
  0
CLASS
  1
IMAGE
  2
AcDbRasterImage
  3
ISM
 90
      127
280
               0
281
               1
  0
CLASS
  1
OLE2FRAME
  2
AcDbOle2Frame
  3
""
 90
        0
280
               0
281
               1
  0
CLASS
  1
HATCH
  2
AcDbHatch
  3
"ACAD_SEDONA"
 90
        0
280
               0
281
               1
  0
CLASS
  1
DICTIONARYVAR
  2
AcDbDictionaryVar
  3
"AutoCAD"
 90
        0
280
               0
281
               0
  0
CLASS
  1
RASTERVARIABLES
  2
AcDbRasterVariables
  3
ISM
 90
        0
280
               0
281
               0
  0
CLASS
  1
IMAGEDEF
  2
AcDbRasterImageDef
  3
ISM
 90
        0
280
               0
281
               0
  0
CLASS
  1
IMAGEDEF_REACTOR
  2
AcDbRasterImageDefReactor
  3
ISM
 90
        1
280
               0
281
               0
  0
CLASS
  1
IDBUFFER
  2
AcDbIdBuffer
  3
"Acad"
 90
        0
280
               0
281
               0
  0
CLASS
  1
SPATIAL_FILTER
  2
AcDbSpatialFilter
  3
"Acad"
 90
        0
280
               0
281
               0
  0
CLASS
  1
XRECORD
  2
AcDbXrecord
  3
"<Built In>"
 90
        0
280
               0
281
               0
  0
CLASS
  1
SORTENTSTABLE
  2
AcDbSortentsTable
  3
"AutoCAD"
 90
        0
280
               0
281
               0
  0
CLASS
  1
LAYER_INDEX
  2
AcDbLayerIndex
  3
"Acad"
 90
        0
280
               0
281
               0
  0
CLASS
  1
SPATIAL_INDEX
  2
AcDbSpatialIndex
  3
"Acad"
 90
        0
280
               0
281
               0
  0
CLASS
  1
OBJECT_PTR
  2
CAseDLPNTableRecord
  3
"ASE-LPNTableRecord"
 90
        1
280
               0
281
               0
  0
CLASS
  1
LAYOUT
  2
AcDbLayout
  3
"AutoCAD 2000"
 90
        0
280
               0
281
               0
  0
CLASS
  1
PLOTSETTINGS
  2
AcDbPlotSettings
  3
"AutoCAD 2000"
 90
        0
280
               0
281
               0
  0
CLASS
  1
ACDBDICTIONARYWDFLT
  2
AcDbDictionaryWithDefault
  3
"AutoCAD 2000"
 90
        0
280
               0
281
               0
  0
CLASS
  1
ACDBPLACEHOLDER
  2
AcDbPlaceHolder
  3
"AutoCAD 2000"
 90
        0
280
               0
281
               0
  0
CLASS
  1
VBA_PROJECT
  2
AcDbVbaProject
  3
"acadvba"
 90
        0
280
               0
281
               0
  0
CLASS
  1
WIPEOUT
  2
AcDbWipeout
  3
WipeOut|AutoCAD Express Tool|expresstools@autodesk.com
 90
      127
280
               0
281
               1
  0
CLASS
  1
WIPEOUTVARIABLES
  2
AcDbWipeoutVariables
  3
WipeOut|AutoCAD Express Tool|expresstools@autodesk.com
 90
        0
280
               0
281
               0
  0
CLASS
  1
RTEXT
  2
RText
  3
RText|AutoCAD Express Tool|expresstools@autodesk.com
 90
        0
280
               0
281
               1
  0
CLASS
  1
ARCALIGNEDTEXT
  2
AcDbArcAlignedText
  3
ATEXT|AutoCAD Express Tool|expresstools@autodesk.com
 90
        0
280
               0
281
               1
  0
ENDSEC
  0
SECTION
  2
TABLES
  0
TABLE
  2
VPORT
  5
7
100
AcDbSymbolTable
 70
               1
  0
VPORT
  5
15
100
AcDbSymbolTableRecord
100
AcDbViewportTableRecord
  2
*ACTIVE
 70
               0
 10
0.0
 20
0.0
 11
1.0
 21
1.0
 12
445.50000000000045
 22
315.00000000000034
 13
0.0
 23
0.0
 14
10.0
 24
10.0
 15
10.0
 25
10.0
 16
0.0
 26
0.0
 36
1.0
 17
0.0
 27
0.0
 37
0.0
 40
630.00000000000068
 41
1.4142857142857141
 42
50.0
 43
0.0
 44
0.0
 50
0.0
 51
0.0
 71
               0
 72
             100
 73
               1
 74
               1
 75
               0
 76
               0
 77
               0
 78
               0
  0
ENDTAB
  0
TABLE
  2
LTYPE
  5
4
100
AcDbSymbolTable
 70
              24
  0
LTYPE
  5
11
100
AcDbSymbolTableRecord
100
AcDbLinetypeTableRecord
  2
ByBlock
 70
              64
  3

 72
              65
 73
               0
 40
0.0
  0
LTYPE
  5
12
100
AcDbSymbolTableRecord
100
AcDbLinetypeTableRecord
  2
ByLayer
 70
              64
  3

 72
              65
 73
               0
 40
0.0
  0
LTYPE
  5
13
100
AcDbSymbolTableRecord
100
AcDbLinetypeTableRecord
  2
Continuous
 70
              64
  3
Solid line
 72
              65
 73
               0
 40
0.0
  0
LTYPE
  5
1D
100
AcDbSymbolTableRecord
100
AcDbLinetypeTableRecord
  2
DOT
 70
              64
  3
Dot . . . . . . . . . . . . . . . . . . . . . .
 72
              65
 73
               2
 40
6.3499999999999996
 49
0.35
 74
               0
 49
-6.0
 74
               0
  0
LTYPE
  5
1E
100
AcDbSymbolTableRecord
100
AcDbLinetypeTableRecord
  2
DASHED
 70
              64
  3
Dashed __ __ __ __ __ __ __ __ __ __ __ __ __ _
 72
              65
 73
               2
 40
12.699999999999999
 49
6.3499999999999996
 74
               0
 49
-6.3499999999999996
 74
               0
  0
LTYPE
  5
1F
100
AcDbSymbolTableRecord
100
AcDbLinetypeTableRecord
  2
DASHDOT
 70
              64
  3
Dash dot __ . __ . __ . __ . __ . __ . __ . __
 72
              65
 73
               4
 40
25.399999999999999
 49
12.699999999999999
 74
               0
 49
-6.0
 74
               0
 49
0.7
 74
               0
 49
-6.0
 74
               0
  0
LTYPE
  5
20
100
AcDbSymbolTableRecord
100
AcDbLinetypeTableRecord
  2
DIVIDE
 70
              64
  3
Divide ____ . . ____ . . ____ . . ____ . . ____
 72
              65
 73
               6
 40
31.75
 49
12.699999999999999
 74
               0
 49
-6.0
 74
               0
 49
0.875
 74
               0
 49
-6.0
 74
               0
 49
0.875
 74
               0
 49
-6.0
 74
               0
  0
LTYPE
  5
21
100
AcDbSymbolTableRecord
100
AcDbLinetypeTableRecord
  2
HIDDEN
 70
              64
  3
Hidden __ __ __ __ __ __ __ __ __ __ __ __ __ _
 72
              65
 73
               2
 40
9.5250000000000004
 49
6.3499999999999996
 74
               0
 49
-3.1749999999999998
 74
               0
  0
LTYPE
  5
22
100
AcDbSymbolTableRecord
100
AcDbLinetypeTableRecord
  2
CENTER
 70
              64
  3
Center ____ _ ____ _ ____ _ ____ _ ____ _ ____
 72
              65
 73
               4
 40
50.799999999999997
 49
31.75
 74
               0
 49
-6.3499999999999996
 74
               0
 49
6.3499999999999996
 74
               0
 49
-6.3499999999999996
 74
               0
  0
LTYPE
  5
23
100
AcDbSymbolTableRecord
100
AcDbLinetypeTableRecord
  2
PHANTOM
 70
              64
  3
Phantom ______  __  __  ______  __  __  ______
 72
              65
 73
               6
 40
63.5
 49
31.75
 74
               0
 49
-6.3499999999999996
 74
               0
 49
6.3499999999999996
 74
               0
 49
-6.3499999999999996
 74
               0
 49
6.3499999999999996
 74
               0
 49
-6.3499999999999996
 74
               0
  0
LTYPE
  5
24
100
AcDbSymbolTableRecord
100
AcDbLinetypeTableRecord
  2
ACAD_ISO02W100
 70
              64
  3
ISO dash __ __ __ __ __ __ __ __ __ __ __ __ __
 72
              65
 73
               2
 40
15.0
 49
12.0
 74
               0
 49
-3.0
 74
               0
  0
LTYPE
  5
25
100
AcDbSymbolTableRecord
100
AcDbLinetypeTableRecord
  2
ACAD_ISO03W100
 70
              64
  3
ISO dash space __ __ __ __ __ __ __ __ __ __ __ __ __ __
 72
              65
 73
               2
 40
30.0
 49
12.0
 74
               0
 49
-18.0
 74
               0
  0
LTYPE
  5
26
100
AcDbSymbolTableRecord
100
AcDbLinetypeTableRecord
  2
ACAD_ISO04W100
 70
              64
  3
ISO long-dash dot ____ . ____ . ____ . ____ . _
 72
              65
 73
               4
 40
30.0
 49
24.0
 74
               0
 49
-3.0
 74
               0
 49
0.0
 74
               0
 49
-3.0
 74
               0
  0
LTYPE
  5
27
100
AcDbSymbolTableRecord
100
AcDbLinetypeTableRecord
  2
ACAD_ISO05W100
 70
              64
  3
ISO long-dash double-dot ____ .. ____ .. ____ .
 72
              65
 73
               6
 40
33.0
 49
24.0
 74
               0
 49
-3.0
 74
               0
 49
0.0
 74
               0
 49
-3.0
 74
               0
 49
0.0
 74
               0
 49
-3.0
 74
               0
  0
LTYPE
  5
28
100
AcDbSymbolTableRecord
100
AcDbLinetypeTableRecord
  2
ACAD_ISO06W100
 70
              64
  3
ISO long-dash triple-dot ____ ... ____ ... ____
 72
              65
 73
               8
 40
36.0
 49
24.0
 74
               0
 49
-3.0
 74
               0
 49
0.0
 74
               0
 49
-3.0
 74
               0
 49
0.0
 74
               0
 49
-3.0
 74
               0
 49
0.0
 74
               0
 49
-3.0
 74
               0
  0
LTYPE
  5
29
100
AcDbSymbolTableRecord
100
AcDbLinetypeTableRecord
  2
ACAD_ISO07W100
 70
              64
  3
ISO dot . . . . . . . . . . . . . . . . . . . .
 72
              65
 73
               2
 40
3.0
 49
0.0
 74
               0
 49
-3.0
 74
               0
  0
LTYPE
  5
2A
100
AcDbSymbolTableRecord
100
AcDbLinetypeTableRecord
  2
ACAD_ISO08W100
 70
              64
  3
ISO long-dash short-dash ____ __ ____ __ ____ _
 72
              65
 73
               4
 40
36.0
 49
24.0
 74
               0
 49
-3.0
 74
               0
 49
6.0
 74
               0
 49
-3.0
 74
               0
  0
LTYPE
  5
2B
100
AcDbSymbolTableRecord
100
AcDbLinetypeTableRecord
  2
ACAD_ISO09W100
 70
              64
  3
ISO long-dash double-short-dash ____ __ __ ____
 72
              65
 73
               6
 40
45.0
 49
24.0
 74
               0
 49
-3.0
 74
               0
 49
6.0
 74
               0
 49
-3.0
 74
               0
 49
6.0
 74
               0
 49
-3.0
 74
               0
  0
LTYPE
  5
2C
100
AcDbSymbolTableRecord
100
AcDbLinetypeTableRecord
  2
ACAD_ISO10W100
 70
              64
  3
ISO dash dot __ . __ . __ . __ . __ . __ . __ .
 72
              65
 73
               4
 40
18.0
 49
12.0
 74
               0
 49
-3.0
 74
               0
 49
0.0
 74
               0
 49
-3.0
 74
               0
  0
LTYPE
  5
2D
100
AcDbSymbolTableRecord
100
AcDbLinetypeTableRecord
  2
ACAD_ISO11W100
 70
              64
  3
ISO double-dash dot __ __ . __ __ . __ __ . __ 
 72
              65
 73
               6
 40
33.0
 49
12.0
 74
               0
 49
-3.0
 74
               0
 49
12.0
 74
               0
 49
-3.0
 74
               0
 49
0.0
 74
               0
 49
-3.0
 74
               0
  0
LTYPE
  5
2E
100
AcDbSymbolTableRecord
100
AcDbLinetypeTableRecord
  2
ACAD_ISO12W100
 70
              64
  3
ISO dash double-dot __ . . __ . . __ . . __ . .
 72
              65
 73
               6
 40
21.0
 49
12.0
 74
               0
 49
-3.0
 74
               0
 49
0.0
 74
               0
 49
-3.0
 74
               0
 49
0.0
 74
               0
 49
-3.0
 74
               0
  0
LTYPE
  5
2F
100
AcDbSymbolTableRecord
100
AcDbLinetypeTableRecord
  2
ACAD_ISO13W100
 70
              64
  3
ISO double-dash double-dot __ __ . . __ __ . . 
 72
              65
 73
               8
 40
36.0
 49
12.0
 74
               0
 49
-3.0
 74
               0
 49
12.0
 74
               0
 49
-3.0
 74
               0
 49
0.0
 74
               0
 49
-3.0
 74
               0
 49
0.0
 74
               0
 49
-3.0
 74
               0
  0
LTYPE
  5
30
100
AcDbSymbolTableRecord
100
AcDbLinetypeTableRecord
  2
ACAD_ISO14W100
 70
              64
  3
ISO dash triple-dot __ . . . __ . . . __ . . . 
 72
              65
 73
               8
 40
24.0
 49
12.0
 74
               0
 49
-3.0
 74
               0
 49
0.0
 74
               0
 49
-3.0
 74
               0
 49
0.0
 74
               0
 49
-3.0
 74
               0
 49
0.0
 74
               0
 49
-3.0
 74
               0
  0
LTYPE
  5
31
100
AcDbSymbolTableRecord
100
AcDbLinetypeTableRecord
  2
ACAD_ISO15W100
 70
              64
  3
ISO double-dash double-dot __ __ . . __ __ . . 
 72
              65
 73
              10
 40
39.0
 49
12.0
 74
               0
 49
-3.0
 74
               0
 49
12.0
 74
               0
 49
-3.0
 74
               0
 49
0.0
 74
               0
 49
-3.0
 74
               0
 49
0.0
 74
               0
 49
-3.0
 74
               0
 49
0.0
 74
               0
 49
-3.0
 74
               0
  0
ENDTAB
  0
TABLE
  2
LAYER
  5
2
100
AcDbSymbolTable
 70
              16
  0
LAYER
  5
14
100
AcDbSymbolTableRecord
100
AcDbLayerTableRecord
  2
0
 70
               0
 62
               7
  6
Continuous
  0
LAYER
  5
35
100
AcDbSymbolTableRecord
100
AcDbLayerTableRecord
  2
Layer00001
 70
               0
 62
               7
  6
Continuous
  0
LAYER
  5
36
100
AcDbSymbolTableRecord
100
AcDbLayerTableRecord
  2
Layer00002
 70
               0
 62
               7
  6
Continuous
  0
LAYER
  5
37
100
AcDbSymbolTableRecord
100
AcDbLayerTableRecord
  2
Layer00003
 70
               0
 62
               7
  6
Continuous
  0
LAYER
  5
38
100
AcDbSymbolTableRecord
100
AcDbLayerTableRecord
  2
Layer00004
 70
               0
 62
               7
  6
Continuous
  0
LAYER
  5
39
100
AcDbSymbolTableRecord
100
AcDbLayerTableRecord
  2
Layer00005
 70
               0
 62
               7
  6
Continuous
  0
LAYER
  5
3A
100
AcDbSymbolTableRecord
100
AcDbLayerTableRecord
  2
Layer00006
 70
               0
 62
               7
  6
Continuous
  0
LAYER
  5
3B
100
AcDbSymbolTableRecord
100
AcDbLayerTableRecord
  2
Layer00007
 70
               0
 62
               7
  6
Continuous
  0
LAYER
  5
3C
100
AcDbSymbolTableRecord
100
AcDbLayerTableRecord
  2
Layer00008
 70
               0
 62
               7
  6
Continuous
  0
LAYER
  5
3D
100
AcDbSymbolTableRecord
100
AcDbLayerTableRecord
  2
Layer00009
 70
               0
 62
               7
  6
Continuous
  0
LAYER
  5
3E
100
AcDbSymbolTableRecord
100
AcDbLayerTableRecord
  2
Layer00010
 70
               0
 62
               7
  6
Continuous
  0
LAYER
  5
3F
100
AcDbSymbolTableRecord
100
AcDbLayerTableRecord
  2
Layer00011
 70
               0
 62
               7
  6
Continuous
  0
LAYER
  5
40
100
AcDbSymbolTableRecord
100
AcDbLayerTableRecord
  2
Layer00012
 70
               0
 62
               7
  6
Continuous
  0
LAYER
  5
41
100
AcDbSymbolTableRecord
100
AcDbLayerTableRecord
  2
Layer00013
 70
               0
 62
               7
  6
Continuous
  0
LAYER
  5
42
100
AcDbSymbolTableRecord
100
AcDbLayerTableRecord
  2
Layer00014
 70
               0
 62
               7
  6
Continuous
  0
LAYER
  5
43
100
AcDbSymbolTableRecord
100
AcDbLayerTableRecord
  2
Layer00015
 70
               0
 62
               7
  6
Continuous
  0
ENDTAB
  0
TABLE
  2
STYLE
  5
3
100
AcDbSymbolTable
 70
               4
  0
STYLE
  5
17
100
AcDbSymbolTableRecord
100
AcDbTextStyleTableRecord
  2
Standard
 70
               0
 40
0.0
 41
1.0
 50
0.0
 71
               0
 42
0.0
  3
txt.shx
  4
bigfont.shx
  0
STYLE
  5
32
100
AcDbSymbolTableRecord
100
AcDbTextStyleTableRecord
  2
STANDARD_T
 70
               4
 40
0.0
 41
1.0
 50
0.0
 71
               0
 42
0.0
  3
txt.shx
  4
bigfont.shx
  0
STYLE
  5
33
100
AcDbSymbolTableRecord
100
AcDbTextStyleTableRecord
  2
FontTableH_0
 70
               0
 40
0.0
 41
1.0
 50
0.0
 71
               0
 42
0.0
  3
MS Gothic.ttf
  4

1001
ACAD
1000
MS Gothic
1071
    32817
  0
STYLE
  5
34
100
AcDbSymbolTableRecord
100
AcDbTextStyleTableRecord
  2
FontTableV_0
 70
               0
 40
0.0
 41
1.0
 50
0.0
 71
               0
 42
0.0
  3
@MS Gothic.ttf
  4

1001
ACAD
1000
@MS Gothic
1071
    32817
  0
ENDTAB
  0
TABLE
  2
VIEW
  5
5
100
AcDbSymbolTable
 70
               0
  0
ENDTAB
  0
TABLE
  2
UCS
  5
6
100
AcDbSymbolTable
 70
               0
  0
ENDTAB
  0
TABLE
  2
APPID
  5
8
100
AcDbSymbolTable
 70
               1
  0
APPID
  5
16
100
AcDbSymbolTableRecord
100
AcDbRegAppTableRecord
  2
ACAD
 70
               0
  0
ENDTAB
  0
TABLE
  2
DIMSTYLE
  5
9
100
AcDbSymbolTable
 70
               1
  0
DIMSTYLE
105
18
100
AcDbSymbolTableRecord
100
AcDbDimStyleTableRecord
  2
Standard
 70
               0
  3

  4

  5

  6

  7

 40
1.0
 41
0.18
 42
0.0625
 43
0.38
 44
0.18
 45
0.0
 46
0.0
 47
0.0
 48
0.0
 71
               0
 72
               0
 73
               1
 74
               1
 75
               0
 76
               0
 77
               0
 78
               0
140
0.18
141
0.09
142
0.0
143
25.399999999999999
144
1.0
145
0.0
146
1.0
147
0.09
170
               0
171
               2
172
               0
173
               0
174
               0
175
               0
176
               0
177
               0
178
               0
270
               2
271
               4
272
               4
273
               2
274
               2
275
               0
280
               0
281
               0
282
               0
283
               1
284
               0
285
               0
286
               0
287
               0
288
               0
340
17
  0
ENDTAB
  0
TABLE
  2
BLOCK_RECORD
  5
1
100
AcDbSymbolTable
 70
               0
  0
BLOCK_RECORD
  5
A
100
AcDbSymbolTableRecord
100
AcDbBlockTableRecord
  2
*MODEL_SPACE
  0
BLOCK_RECORD
  5
B
100
AcDbSymbolTableRecord
100
AcDbBlockTableRecord
  2
*PAPER_SPACE
  0
ENDTAB
  0
ENDSEC
  0
SECTION
  2
BLOCKS
  0
BLOCK
  5
D
100
AcDbEntity
  8
0
100
AcDbBlockBegin
  2
*MODEL_SPACE
 70
               0
 10
0.0
 20
0.0
 30
0.0
  3
*MODEL_SPACE
  1

  0
ENDBLK
  5
E
100
AcDbEntity
  8
0
100
AcDbBlockEnd
  0
BLOCK
  5
F
100
AcDbEntity
 67
               1
  8
0
100
AcDbBlockBegin
  2
*PAPER_SPACE
 70
               0
 10
0.0
 20
0.0
 30
0.0
  3
*PAPER_SPACE
  1

  0
ENDBLK
  5
10
100
AcDbEntity
 67
               1
  8
0
100
AcDbBlockEnd
  0
ENDSEC
  0
SECTION
  2
ENTITIES
  0
LINE
  5
44
100
AcDbEntity
  8
0
  6
Continuous
 62
               2
100
AcDbLine
 10
605.89388656289952
 20
279.05684043145675
 30
0.0
 11
288.8938865628993
 21
279.05684043145675
 31
0.0
  0
LINE
  5
45
100
AcDbEntity
  8
0
  6
Continuous
 62
               4
100
AcDbLine
 10
605.89388656289952
 20
274.55684043145664
 30
0.0
 11
288.8938865628993
 21
274.55684043145664
 31
0.0
  0
LINE
  5
46
100
AcDbEntity
  8
0
  6
Continuous
 62
               7
100
AcDbLine
 10
283.8938865628993
 20
457.05684043145664
 30
0.0
 11
283.8938865628993
 21
118.05684043145655
 31
0.0
  0
LINE
  5
47
100
AcDbEntity
  8
0
  6
Continuous
 62
               4
100
AcDbLine
 10
288.78036254672679
 20
369.06522459845928
 30
0.0
 11
288.4563993935289
 21
378.34231550776747
 31
0.0
  0
LINE
  5
48
100
AcDbEntity
  8
0
  6
Continuous
 62
               2
100
AcDbLine
 10
306.8938865628993
 20
287.05684043145675
 30
0.0
 11
306.8938865628993
 21
387.05684043145664
 31
0.0
  0
LINE
  5
49
100
AcDbEntity
  8
0
  6
Continuous
 62
               2
100
AcDbLine
 10
306.8938865628993
 20
287.05684043145675
 30
0.0
 11
386.13602153827969
 21
282.10420699549559
 31
0.0
  0
LINE
  5
4A
100
AcDbEntity
  8
0
  6
Continuous
 62
               2
100
AcDbLine
 10
371.95096609152313
 20
279.24950429024182
 30
0.0
 11
386.15604877044927
 21
280.49228798909633
 31
0.0
  0
LINE
  5
4B
100
AcDbEntity
  8
0
  6
Continuous
 62
               2
100
AcDbLine
 10
306.8938865628993
 20
387.05684043145664
 30
0.0
 11
286.8938865628993
 21
387.05684043145664
 31
0.0
  0
LINE
  5
4C
100
AcDbEntity
  8
0
  6
Continuous
 62
               2
100
AcDbLine
 10
291.2654439903759
 20
354.11214774335781
 30
0.0
 11
290.45639939352878
 21
363.35956980058597
 31
0.0
  0
LINE
  5
4D
100
AcDbEntity
  8
0
  6
Continuous
 62
               7
100
AcDbLine
 10
304.8938865628993
 20
407.05684043145664
 30
0.0
 11
283.8938865628993
 21
407.05684043145664
 31
0.0
  0
LINE
  5
4E
100
AcDbEntity
  8
0
  6
Continuous
 62
               7
100
AcDbLine
 10
304.8938865628993
 20
407.05684043145664
 30
0.0
 11
304.8938865628993
 21
457.05684043145664
 31
0.0
  0
LINE
  5
4F
100
AcDbEntity
  8
0
  6
Continuous
 62
               6
100
AcDbLine
 10
292.92332381442219
 20
387.05684043145664
 30
0.0
 11
292.8938865628993
 21
387.08627768297947
 31
0.0
  0
LINE
  5
50
100
AcDbEntity
  8
0
  6
Continuous
 62
               6
100
AcDbLine
 10
297.1659645015414
 20
387.05684043145664
 30
0.0
 11
292.8938865628993
 21
391.32891837009879
 31
0.0
  0
LINE
  5
51
100
AcDbEntity
  8
0
  6
Continuous
 62
               6
100
AcDbLine
 10
301.40860518866083
 20
387.05684043145664
 30
0.0
 11
292.8938865628993
 21
395.57155905721811
 31
0.0
  0
LINE
  5
52
100
AcDbEntity
  8
0
  6
Continuous
 62
               6
100
AcDbLine
 10
304.58576136975432
 20
388.1223249374824
 30
0.0
 11
292.8938865628993
 21
399.81419974433732
 31
0.0
  0
LINE
  5
53
100
AcDbEntity
  8
0
  6
Continuous
 62
               6
100
AcDbLine
 10
303.59548797309861
 20
393.35523902125738
 30
0.0
 11
292.8938865628993
 21
404.05684043145664
 31
0.0
  0
LINE
  5
54
100
AcDbEntity
  8
0
  6
Continuous
 62
               6
100
AcDbLine
 10
303.40180652288922
 20
397.79156115858609
 30
0.0
 11
294.13652725001862
 21
407.05684043145664
 31
0.0
  0
LINE
  5
55
100
AcDbEntity
  8
0
  6
Continuous
 62
               6
100
AcDbLine
 10
303.71458809679791
 20
401.72142027179666
 30
0.0
 11
298.37916793713788
 21
407.05684043145664
 31
0.0
  0
LINE
  5
56
100
AcDbEntity
  8
0
  6
Continuous
 62
               6
100
AcDbLine
 10
304.4003269110828
 20
405.27832214463103
 30
0.0
 11
302.6218086242572
 21
407.05684043145664
 31
0.0
  0
LINE
  5
57
100
AcDbEntity
  8
0
  6
Continuous
 62
               6
100
AcDbLine
 10
304.1711677393323
 20
389.81940298212817
 30
0.0
 11
301.40860518866083
 21
387.05684043145664
 31
0.0
  0
LINE
  5
58
100
AcDbEntity
  8
0
  6
Continuous
 62
               6
100
AcDbLine
 10
303.58276206851332
 20
393.47363799842844
 30
0.0
 11
297.1659645015414
 21
387.05684043145664
 31
0.0
  0
LINE
  5
59
100
AcDbEntity
  8
0
  6
Continuous
 62
               6
100
AcDbLine
 10
303.39718071270079
 20
397.53069732973529
 30
0.0
 11
292.92332381442219
 21
387.05684043145664
 31
0.0
  0
LINE
  5
5A
100
AcDbEntity
  8
0
  6
Continuous
 62
               6
100
AcDbLine
 10
303.77706390069261
 20
402.15322120484632
 30
0.0
 11
292.8938865628993
 21
391.27004386705312
 31
0.0
  0
LINE
  5
5B
100
AcDbEntity
  8
0
  6
Continuous
 62
               6
100
AcDbLine
 10
304.43804244018361
 20
407.05684043145664
 30
0.0
 11
292.8938865628993
 21
395.51268455417232
 31
0.0
  0
LINE
  5
5C
100
AcDbEntity
  8
0
  6
Continuous
 62
               6
100
AcDbLine
 10
300.19540175306429
 20
407.05684043145664
 30
0.0
 11
292.8938865628993
 21
399.75532524129164
 31
0.0
  0
LINE
  5
5D
100
AcDbEntity
  8
0
  6
Continuous
 62
               6
100
AcDbLine
 10
295.95276106594508
 20
407.05684043145664
 30
0.0
 11
292.8938865628993
 21
403.99796592841096
 31
0.0
  0
LINE
  5
5E
100
AcDbEntity
  8
0
  6
Continuous
 62
               7
100
AcDbLine
 10
292.8938865628993
 20
407.05684043145664
 30
0.0
 11
292.8938865628993
 21
417.05684043145664
 31
0.0
  0
LINE
  5
5F
100
AcDbEntity
  8
0
  6
Continuous
 62
               7
100
AcDbLine
 10
295.8938865628993
 20
419.05684043145664
 30
0.0
 11
295.8938865628993
 21
457.05684043145664
 31
0.0
  0
LINE
  5
60
100
AcDbEntity
  8
0
  6
Continuous
 62
               7
100
AcDbLine
 10
293.8938865628993
 20
417.05684043145664
 30
0.0
 11
292.8938865628993
 21
417.05684043145664
 31
0.0
  0
LINE
  5
61
100
AcDbEntity
  8
0
  6
Continuous
 62
               4
100
AcDbLine
 10
307.26815627983041
 20
293.04515590235405
 30
0.0
 11
308.39096275891814
 21
311.01005956775725
 31
0.0
  0
LINE
  5
62
100
AcDbEntity
  8
0
  6
Continuous
 62
               4
100
AcDbLine
 10
387.26658220935599
 20
287.2353927183616
 30
0.0
 11
388.43980808538663
 21
306.00700673485289
 31
0.0
  0
LINE
  5
63
100
AcDbEntity
  8
0
  6
Continuous
 62
               4
100
AcDbLine
 10
308.2038279004525
 20
308.01590183230849
 30
0.0
 11
388.25267322692105
 21
303.01284899940424
 31
0.0
  0
LINE
  5
64
100
AcDbEntity
  8
0
  6
Continuous
 62
               4
100
AcDbLine
 10
315.8938865628993
 20
287.05684043145675
 30
0.0
 11
333.8938865628993
 21
287.05684043145675
 31
0.0
  0
LINE
  5
65
100
AcDbEntity
  8
0
  6
Continuous
 62
               4
100
AcDbLine
 10
315.8938865628993
 20
387.05684043145664
 30
0.0
 11
333.8938865628993
 21
387.05684043145664
 31
0.0
  0
LINE
  5
66
100
AcDbEntity
  8
0
  6
Continuous
 62
               4
100
AcDbLine
 10
330.8938865628993
 20
287.05684043145675
 30
0.0
 11
330.8938865628993
 21
387.05684043145664
 31
0.0
  0
LINE
  5
67
100
AcDbEntity
  8
0
  6
Continuous
 62
               4
100
AcDbLine
 10
310.43804244018361
 20
407.05684043145664
 30
0.0
 11
333.8938865628993
 21
407.05684043145664
 31
0.0
  0
LINE
  5
68
100
AcDbEntity
  8
0
  6
Continuous
 62
               4
100
AcDbLine
 10
330.8938865628993
 20
387.05684043145664
 30
0.0
 11
330.8938865628993
 21
407.05684043145664
 31
0.0
  0
LINE
  5
69
100
AcDbEntity
  8
0
  6
Continuous
 62
               4
100
AcDbLine
 10
378.65746909541645
 20
335.05684043145664
 30
0.0
 11
349.51495405058949
 21
284.58052371347617
 31
0.0
  0
LINE
  5
6A
100
AcDbEntity
  8
0
  6
Continuous
 62
               4
100
AcDbLine
 10
320.71439463858815
 20
427.05684043145664
 30
0.0
 11
303.3938865628993
 21
397.05684043145664
 31
0.0
  0
LINE
  5
6B
100
AcDbEntity
  8
0
  6
Continuous
 62
               4
100
AcDbLine
 10
378.65746909541645
 20
335.05684043145664
 30
0.0
 11
456.12375121013895
 21
335.05684043145664
 31
0.0
  0
LINE
  5
6C
100
AcDbEntity
  8
0
  6
Continuous
 62
               4
100
AcDbLine
 10
320.71439463858815
 20
427.05684043145664
 30
0.0
 11
426.78188372737122
 21
427.05684043145664
 31
0.0
  0
LINE
  5
6D
100
AcDbEntity
  8
0
  6
Continuous
 62
               4
100
AcDbLine
 10
349.51495405058949
 20
284.58052371347617
 30
0.0
 11
352.59313534052046
 21
293.03775730054929
 31
0.0
  0
LINE
  5
6E
100
AcDbEntity
  8
0
  6
Continuous
 62
               4
100
AcDbLine
 10
349.51495405058949
 20
284.58052371347617
 30
0.0
 11
355.30004253776838
 21
291.47492370154691
 31
0.0
  0
LINE
  5
6F
100
AcDbEntity
  8
0
  6
Continuous
 62
               4
100
AcDbLine
 10
303.3938865628993
 20
397.05684043145664
 30
0.0
 11
306.47206785283043
 21
405.51407401852987
 31
0.0
  0
LINE
  5
70
100
AcDbEntity
  8
0
  6
Continuous
 62
               4
100
AcDbLine
 10
303.3938865628993
 20
397.05684043145664
 30
0.0
 11
309.17897505007818
 21
403.95124041952749
 31
0.0
  0
LINE
  5
71
100
AcDbEntity
  8
0
  6
Continuous
 62
               6
100
AcDbLine
 10
233.8938865628993
 20
372.19876176839648
 30
0.0
 11
283.8938865628993
 21
422.19876176839648
 31
0.0
  0
LINE
  5
72
100
AcDbEntity
  8
0
  6
Continuous
 62
               6
100
AcDbLine
 10
233.8938865628993
 20
365.12769395653095
 30
0.0
 11
283.8938865628993
 21
415.12769395653095
 31
0.0
  0
LINE
  5
73
100
AcDbEntity
  8
0
  6
Continuous
 62
               6
100
AcDbLine
 10
233.8938865628993
 20
358.05662614466553
 30
0.0
 11
283.8938865628993
 21
408.05662614466553
 31
0.0
  0
LINE
  5
74
100
AcDbEntity
  8
0
  6
Continuous
 62
               6
100
AcDbLine
 10
233.8938865628993
 20
188.35099865989403
 30
0.0
 11
283.8938865628993
 21
238.35099865989403
 31
0.0
  0
LINE
  5
75
100
AcDbEntity
  8
0
  6
Continuous
 62
               6
100
AcDbLine
 10
233.8938865628993
 20
181.27993084802861
 30
0.0
 11
283.8938865628993
 21
231.27993084802861
 31
0.0
  0
LINE
  5
76
100
AcDbEntity
  8
0
  6
Continuous
 62
               6
100
AcDbLine
 10
233.8938865628993
 20
174.20886303616314
 30
0.0
 11
283.8938865628993
 21
224.20886303616314
 31
0.0
  0
LINE
  5
77
100
AcDbEntity
  8
0
  6
Continuous
 62
               7
100
AcDbLine
 10
288.09733821810659
 20
394.29336447341075
 30
0.0
 11
288.0973382181071
 21
399.69336447341095
 31
0.0
  0
LINE
  5
78
100
AcDbEntity
  8
0
  6
Continuous
 62
               7
100
AcDbLine
 10
287.59733821810789
 20
401.49336447341057
 30
0.0
 11
287.59733821810732
 21
392.49336447341102
 31
0.0
  0
LINE
  5
79
100
AcDbEntity
  8
0
  6
Continuous
 62
               7
100
AcDbLine
 10
287.79733821810709
 20
399.99336447341091
 30
0.0
 11
287.59733821810789
 21
399.99336447341113
 31
0.0
  0
LINE
  5
7A
100
AcDbEntity
  8
0
  6
Continuous
 62
               7
100
AcDbLine
 10
287.79733821810692
 20
393.99336447341011
 30
0.0
 11
287.59733821810812
 21
393.99336447341113
 31
0.0
  0
LINE
  5
7B
100
AcDbEntity
  8
0
  6
Continuous
 62
               7
100
AcDbLine
 10
257.75107907143638
 20
398.49336447341204
 30
0.0
 11
256.0973382181067
 21
398.49336447341091
 31
0.0
  0
LINE
  5
7C
100
AcDbEntity
  8
0
  6
Continuous
 62
               7
100
AcDbLine
 10
257.75107907143973
 20
395.49336447341273
 30
0.0
 11
256.09733821810801
 21
395.49336447341159
 31
0.0
  0
LINE
  5
7D
100
AcDbEntity
  8
0
  6
Continuous
 62
               7
100
AcDbLine
 10
287.14388170259093
 20
401.49336447341113
 30
0.0
 11
287.59733821810789
 21
401.49336447341057
 31
0.0
  0
LINE
  5
7E
100
AcDbEntity
  8
0
  6
Continuous
 62
               7
100
AcDbLine
 10
287.1438817025907
 20
392.49336447341136
 30
0.0
 11
287.59733821810732
 21
392.49336447341102
 31
0.0
  0
LINE
  5
7F
100
AcDbEntity
  8
0
  6
Continuous
 62
               7
100
AcDbLine
 10
286.0973382181088
 20
399.49336447341136
 30
0.0
 11
268.5973382181075
 21
399.49336447341113
 31
0.0
  0
LINE
  5
80
100
AcDbEntity
  8
0
  6
Continuous
 62
               7
100
AcDbLine
 10
286.09733821810812
 20
394.49336447341091
 30
0.0
 11
268.5973382181071
 21
394.49336447341125
 31
0.0
  0
LINE
  5
81
100
AcDbEntity
  8
0
  6
Continuous
 62
               7
100
AcDbLine
 10
286.46478195248903
 20
400.96313941093683
 30
0.0
 11
286.0973382181088
 21
399.49336447341136
 31
0.0
  0
LINE
  5
82
100
AcDbEntity
  8
0
  6
Continuous
 62
               7
100
AcDbLine
 10
286.4647819524892
 20
393.02358953588578
 30
0.0
 11
286.09733821810812
 21
394.49336447341091
 31
0.0
  0
LINE
  5
83
100
AcDbEntity
  8
0
  6
Continuous
 62
               7
100
AcDbLine
 10
255.54522801634209
 20
399.89774214173406
 30
0.0
 11
255.3715798386761
 21
398.91293438872242
 31
0.0
  0
LINE
  5
84
100
AcDbEntity
  8
0
  6
Continuous
 62
               7
100
AcDbLine
 10
255.37157983867621
 20
395.07379455810053
 30
0.0
 11
263.13531883557641
 21
396.44275121443286
 31
0.0
  0
LINE
  5
85
100
AcDbEntity
  8
0
  6
Continuous
 62
               7
100
AcDbLine
 10
255.3715798386761
 20
398.91293438872242
 30
0.0
 11
263.13531883557539
 21
397.54397773239009
 31
0.0
  0
LINE
  5
86
100
AcDbEntity
  8
0
  6
Continuous
 62
               7
100
AcDbLine
 10
255.54522801634198
 20
394.08898680508776
 30
0.0
 11
255.37157983867621
 21
395.07379455810053
 31
0.0
  0
LINE
  5
87
100
AcDbEntity
  8
0
  6
Continuous
 62
               7
100
AcDbLine
 10
257.19608782352799
 20
400.62207762824676
 30
0.0
 11
263.59733821810732
 21
399.49336447341159
 31
0.0
  0
LINE
  5
88
100
AcDbEntity
  8
0
  6
Continuous
 62
               7
100
AcDbLine
 10
257.19608782352753
 20
393.36465131857619
 30
0.0
 11
263.59733821810778
 21
394.49336447341136
 31
0.0
  0
LINE
  5
89
100
AcDbEntity
  8
0
  6
Continuous
 62
               7
100
AcDbLine
 10
255.54522801634198
 20
394.08898680508776
 30
0.0
 11
257.19608782352753
 21
393.36465131857619
 31
0.0
  0
LINE
  5
8A
100
AcDbEntity
  8
0
  6
Continuous
 62
               7
100
AcDbLine
 10
255.54522801634209
 20
399.89774214173406
 30
0.0
 11
257.19608782352799
 21
400.62207762824676
 31
0.0
  0
LINE
  5
8B
100
AcDbEntity
  8
0
  6
Continuous
 62
               7
100
AcDbLine
 10
265.59733821810693
 20
399.49336447341182
 30
0.0
 11
265.59733821810653
 21
398.99336447341148
 31
0.0
  0
LINE
  5
8C
100
AcDbEntity
  8
0
  6
Continuous
 62
               7
100
AcDbLine
 10
268.5973382181075
 20
399.49336447341113
 30
0.0
 11
268.59733821810659
 21
398.99336447341204
 31
0.0
  0
LINE
  5
8D
100
AcDbEntity
  8
0
  6
Continuous
 62
               7
100
AcDbLine
 10
267.59733821810732
 20
399.4933644734117
 30
0.0
 11
267.59733821810681
 21
398.99336447341227
 31
0.0
  0
LINE
  5
8E
100
AcDbEntity
  8
0
  6
Continuous
 62
               7
100
AcDbLine
 10
266.5973382181075
 20
399.49336447341204
 30
0.0
 11
266.5973382181067
 21
398.99336447341091
 31
0.0
  0
LINE
  5
8F
100
AcDbEntity
  8
0
  6
Continuous
 62
               7
100
AcDbLine
 10
268.59733821810778
 20
394.99336447341238
 30
0.0
 11
267.59733821810653
 21
394.99336447341148
 31
0.0
  0
LINE
  5
90
100
AcDbEntity
  8
0
  6
Continuous
 62
               7
100
AcDbLine
 10
268.59733821810659
 20
398.99336447341204
 30
0.0
 11
267.59733821810681
 21
398.99336447341227
 31
0.0
  0
LINE
  5
91
100
AcDbEntity
  8
0
  6
Continuous
 62
               7
100
AcDbLine
 10
265.59733821810698
 20
394.99336447341125
 30
0.0
 11
265.59733821810732
 21
394.49336447341159
 31
0.0
  0
LINE
  5
92
100
AcDbEntity
  8
0
  6
Continuous
 62
               7
100
AcDbLine
 10
268.59733821810778
 20
394.99336447341238
 30
0.0
 11
268.5973382181071
 21
394.49336447341125
 31
0.0
  0
LINE
  5
93
100
AcDbEntity
  8
0
  6
Continuous
 62
               7
100
AcDbLine
 10
267.59733821810653
 20
394.99336447341148
 30
0.0
 11
267.59733821810659
 21
394.49336447341091
 31
0.0
  0
LINE
  5
94
100
AcDbEntity
  8
0
  6
Continuous
 62
               7
100
AcDbLine
 10
266.5973382181071
 20
394.9933644734117
 30
0.0
 11
266.5973382181063
 21
394.49336447341159
 31
0.0
  0
LINE
  5
95
100
AcDbEntity
  8
0
  6
Continuous
 62
               7
100
AcDbLine
 10
265.59733821810693
 20
399.49336447341182
 30
0.0
 11
263.59733821810732
 21
399.49336447341159
 31
0.0
  0
LINE
  5
96
100
AcDbEntity
  8
0
  6
Continuous
 62
               7
100
AcDbLine
 10
265.59733821810732
 20
394.49336447341159
 30
0.0
 11
263.59733821810778
 21
394.49336447341136
 31
0.0
  0
LINE
  5
97
100
AcDbEntity
  8
0
  6
Continuous
 62
               7
100
AcDbLine
 10
267.59733821810732
 20
399.4933644734117
 30
0.0
 11
266.5973382181075
 21
399.49336447341204
 31
0.0
  0
LINE
  5
98
100
AcDbEntity
  8
0
  6
Continuous
 62
               7
100
AcDbLine
 10
267.59733821810659
 20
394.49336447341091
 30
0.0
 11
266.5973382181063
 21
394.49336447341159
 31
0.0
  0
LINE
  5
99
100
AcDbEntity
  8
0
  6
Continuous
 62
               7
100
AcDbLine
 10
266.5973382181071
 20
394.9933644734117
 30
0.0
 11
265.59733821810698
 21
394.99336447341125
 31
0.0
  0
LINE
  5
9A
100
AcDbEntity
  8
0
  6
Continuous
 62
               7
100
AcDbLine
 10
266.5973382181067
 20
398.99336447341091
 30
0.0
 11
265.59733821810653
 21
398.99336447341148
 31
0.0
  0
LINE
  5
9B
100
AcDbEntity
  8
0
  6
Continuous
 62
               7
100
AcDbLine
 10
256.35980420868583
 20
398.49336447341227
 30
0.0
 11
256.09733821810801
 21
395.49336447341159
 31
0.0
  0
LINE
  5
9C
100
AcDbEntity
  8
0
  6
Continuous
 62
               7
100
AcDbLine
 10
257.36362404622821
 20
398.49336447341159
 30
0.0
 11
257.10115805565152
 21
395.4933644734125
 31
0.0
  0
LINE
  5
9D
100
AcDbEntity
  8
0
  6
Continuous
 62
               7
100
AcDbLine
 10
258.35807991730752
 20
398.3863338469713
 30
0.0
 11
258.11052289353313
 21
395.55674411729603
 31
0.0
  0
LINE
  5
9E
100
AcDbEntity
  8
0
  6
Continuous
 62
               7
100
AcDbLine
 10
259.34664947594848
 20
398.21202236147599
 30
0.0
 11
259.13007090250801
 21
395.73651793940587
 31
0.0
  0
LINE
  5
9F
100
AcDbEntity
  8
0
  6
Continuous
 62
               7
100
AcDbLine
 10
260.33521903458853
 20
398.03771087598022
 30
0.0
 11
260.14961891148539
 21
395.91629176151662
 31
0.0
  0
LINE
  5
A0
100
AcDbEntity
  8
0
  6
Continuous
 62
               7
100
AcDbLine
 10
261.32378859322739
 20
397.86339939048582
 30
0.0
 11
261.16916692046209
 21
396.0960655836268
 31
0.0
  0
LINE
  5
A1
100
AcDbEntity
  8
0
  6
Continuous
 62
               7
100
AcDbLine
 10
262.31235815186903
 20
397.68908790499029
 30
0.0
 11
262.18871492943833
 21
396.27583940573606
 31
0.0
  0
LINE
  5
A2
100
AcDbEntity
  8
0
  6
Continuous
 62
               7
100
AcDbLine
 10
263.30092771050732
 20
397.5147764194943
 30
0.0
 11
263.20826293841372
 21
396.45561322784681
 31
0.0
  0
LINE
  5
A3
100
AcDbEntity
  8
0
  6
Continuous
 62
               7
100
AcDbLine
 10
252.09733821810772
 20
397.24336447341284
 30
0.0
 11
252.09733821810732
 21
396.7433644734125
 31
0.0
  0
LINE
  5
A4
100
AcDbEntity
  8
0
  6
Continuous
 62
               7
100
AcDbLine
 10
256.09733821810801
 20
395.49336447341159
 30
0.0
 11
252.09733821810732
 21
396.7433644734125
 31
0.0
  0
LINE
  5
A5
100
AcDbEntity
  8
0
  6
Continuous
 62
               7
100
AcDbLine
 10
252.09733821810772
 20
397.24336447341284
 30
0.0
 11
256.0973382181067
 21
398.49336447341091
 31
0.0
  0
LINE
  5
A6
100
AcDbEntity
  8
0
  6
Continuous
 62
               7
100
AcDbLine
 10
289.85405937898008
 20
342.72519285082035
 30
0.0
 11
289.85405937898048
 21
348.12519285082078
 31
0.0
  0
LINE
  5
A7
100
AcDbEntity
  8
0
  6
Continuous
 62
               7
100
AcDbLine
 10
289.35405937898133
 20
349.92519285082028
 30
0.0
 11
289.35405937898071
 21
340.92519285082062
 31
0.0
  0
LINE
  5
A8
100
AcDbEntity
  8
0
  6
Continuous
 62
               7
100
AcDbLine
 10
289.55405937898058
 20
348.42519285082062
 30
0.0
 11
289.35405937898139
 21
348.42519285082085
 31
0.0
  0
LINE
  5
A9
100
AcDbEntity
  8
0
  6
Continuous
 62
               7
100
AcDbLine
 10
289.5540593789803
 20
342.42519285081983
 30
0.0
 11
289.3540593789815
 21
342.42519285082085
 31
0.0
  0
LINE
  5
AA
100
AcDbEntity
  8
0
  6
Continuous
 62
               7
100
AcDbLine
 10
259.50780023230993
 20
346.92519285082187
 30
0.0
 11
257.8540593789802
 21
346.92519285082074
 31
0.0
  0
LINE
  5
AB
100
AcDbEntity
  8
0
  6
Continuous
 62
               7
100
AcDbLine
 10
259.50780023231312
 20
343.92519285082255
 30
0.0
 11
257.85405937898139
 21
343.9251928508213
 31
0.0
  0
LINE
  5
AC
100
AcDbEntity
  8
0
  6
Continuous
 62
               7
100
AcDbLine
 10
288.90060286346443
 20
349.92519285082085
 30
0.0
 11
289.35405937898133
 21
349.92519285082028
 31
0.0
  0
LINE
  5
AD
100
AcDbEntity
  8
0
  6
Continuous
 62
               7
100
AcDbLine
 10
288.90060286346409
 20
340.92519285082108
 30
0.0
 11
289.35405937898071
 21
340.92519285082062
 31
0.0
  0
LINE
  5
AE
100
AcDbEntity
  8
0
  6
Continuous
 62
               7
100
AcDbLine
 10
287.85405937898219
 20
347.92519285082119
 30
0.0
 11
270.35405937898099
 21
347.92519285082085
 31
0.0
  0
LINE
  5
AF
100
AcDbEntity
  8
0
  6
Continuous
 62
               7
100
AcDbLine
 10
287.85405937898162
 20
342.92519285082062
 30
0.0
 11
270.35405937898059
 21
342.92519285082096
 31
0.0
  0
LINE
  5
B0
100
AcDbEntity
  8
0
  6
Continuous
 62
               7
100
AcDbLine
 10
288.22150311336242
 20
349.39496778834666
 30
0.0
 11
287.85405937898219
 21
347.92519285082119
 31
0.0
  0
LINE
  5
B1
100
AcDbEntity
  8
0
  6
Continuous
 62
               7
100
AcDbLine
 10
288.22150311336259
 20
341.45541791329549
 30
0.0
 11
287.85405937898162
 21
342.92519285082062
 31
0.0
  0
LINE
  5
B2
100
AcDbEntity
  8
0
  6
Continuous
 62
               7
100
AcDbLine
 10
257.30194917721553
 20
348.32957051914389
 30
0.0
 11
257.12830099954959
 21
347.34476276613225
 31
0.0
  0
LINE
  5
B3
100
AcDbEntity
  8
0
  6
Continuous
 62
               7
100
AcDbLine
 10
257.12830099954959
 20
343.50562293551036
 30
0.0
 11
264.8920399964498
 21
344.87457959184269
 31
0.0
  0
LINE
  5
B4
100
AcDbEntity
  8
0
  6
Continuous
 62
               7
100
AcDbLine
 10
257.12830099954959
 20
347.34476276613225
 30
0.0
 11
264.89203999644883
 21
345.97580610979992
 31
0.0
  0
LINE
  5
B5
100
AcDbEntity
  8
0
  6
Continuous
 62
               7
100
AcDbLine
 10
257.30194917721542
 20
342.52081518249747
 30
0.0
 11
257.12830099954959
 21
343.50562293551036
 31
0.0
  0
LINE
  5
B6
100
AcDbEntity
  8
0
  6
Continuous
 62
               7
100
AcDbLine
 10
258.95280898440149
 20
349.05390600565659
 30
0.0
 11
265.35405937898082
 21
347.92519285082142
 31
0.0
  0
LINE
  5
B7
100
AcDbEntity
  8
0
  6
Continuous
 62
               7
100
AcDbLine
 10
258.95280898440103
 20
341.79647969598579
 30
0.0
 11
265.35405937898133
 21
342.92519285082119
 31
0.0
  0
LINE
  5
B8
100
AcDbEntity
  8
0
  6
Continuous
 62
               7
100
AcDbLine
 10
257.30194917721542
 20
342.52081518249747
 30
0.0
 11
258.95280898440103
 21
341.79647969598579
 31
0.0
  0
LINE
  5
B9
100
AcDbEntity
  8
0
  6
Continuous
 62
               7
100
AcDbLine
 10
257.30194917721553
 20
348.32957051914389
 30
0.0
 11
258.95280898440149
 21
349.05390600565659
 31
0.0
  0
LINE
  5
BA
100
AcDbEntity
  8
0
  6
Continuous
 62
               7
100
AcDbLine
 10
267.35405937898031
 20
347.92519285082165
 30
0.0
 11
267.35405937898003
 21
347.42519285082119
 31
0.0
  0
LINE
  5
BB
100
AcDbEntity
  8
0
  6
Continuous
 62
               7
100
AcDbLine
 10
270.35405937898099
 20
347.92519285082085
 30
0.0
 11
270.35405937898008
 21
347.42519285082176
 31
0.0
  0
LINE
  5
BC
100
AcDbEntity
  8
0
  6
Continuous
 62
               7
100
AcDbLine
 10
269.35405937898071
 20
347.92519285082142
 30
0.0
 11
269.3540593789802
 21
347.4251928508221
 31
0.0
  0
LINE
  5
BD
100
AcDbEntity
  8
0
  6
Continuous
 62
               7
100
AcDbLine
 10
268.35405937898093
 20
347.92519285082187
 30
0.0
 11
268.3540593789802
 21
347.42519285082074
 31
0.0
  0
LINE
  5
BE
100
AcDbEntity
  8
0
  6
Continuous
 62
               7
100
AcDbLine
 10
270.35405937898133
 20
343.4251928508221
 30
0.0
 11
269.35405937898003
 21
343.42519285082119
 31
0.0
  0
LINE
  5
BF
100
AcDbEntity
  8
0
  6
Continuous
 62
               7
100
AcDbLine
 10
270.35405937898008
 20
347.42519285082176
 30
0.0
 11
269.3540593789802
 21
347.4251928508221
 31
0.0
  0
LINE
  5
C0
100
AcDbEntity
  8
0
  6
Continuous
 62
               7
100
AcDbLine
 10
267.35405937898042
 20
343.42519285082096
 30
0.0
 11
267.35405937898082
 21
342.92519285082142
 31
0.0
  0
LINE
  5
C1
100
AcDbEntity
  8
0
  6
Continuous
 62
               7
100
AcDbLine
 10
270.35405937898133
 20
343.4251928508221
 30
0.0
 11
270.35405937898059
 21
342.92519285082096
 31
0.0
  0
LINE
  5
C2
100
AcDbEntity
  8
0
  6
Continuous
 62
               7
100
AcDbLine
 10
269.35405937898003
 20
343.42519285082119
 30
0.0
 11
269.35405937898003
 21
342.92519285082074
 31
0.0
  0
LINE
  5
C3
100
AcDbEntity
  8
0
  6
Continuous
 62
               7
100
AcDbLine
 10
268.35405937898048
 20
343.42519285082142
 30
0.0
 11
268.35405937897968
 21
342.9251928508213
 31
0.0
  0
LINE
  5
C4
100
AcDbEntity
  8
0
  6
Continuous
 62
               7
100
AcDbLine
 10
267.35405937898031
 20
347.92519285082165
 30
0.0
 11
265.35405937898082
 21
347.92519285082142
 31
0.0
  0
LINE
  5
C5
100
AcDbEntity
  8
0
  6
Continuous
 62
               7
100
AcDbLine
 10
267.35405937898082
 20
342.92519285082142
 30
0.0
 11
265.35405937898133
 21
342.92519285082119
 31
0.0
  0
LINE
  5
C6
100
AcDbEntity
  8
0
  6
Continuous
 62
               7
100
AcDbLine
 10
269.35405937898071
 20
347.92519285082142
 30
0.0
 11
268.35405937898093
 21
347.92519285082187
 31
0.0
  0
LINE
  5
C7
100
AcDbEntity
  8
0
  6
Continuous
 62
               7
100
AcDbLine
 10
269.35405937898003
 20
342.92519285082074
 30
0.0
 11
268.35405937897968
 21
342.9251928508213
 31
0.0
  0
LINE
  5
C8
100
AcDbEntity
  8
0
  6
Continuous
 62
               7
100
AcDbLine
 10
268.35405937898048
 20
343.42519285082142
 30
0.0
 11
267.35405937898042
 21
343.42519285082096
 31
0.0
  0
LINE
  5
C9
100
AcDbEntity
  8
0
  6
Continuous
 62
               7
100
AcDbLine
 10
268.3540593789802
 20
347.42519285082074
 30
0.0
 11
267.35405937898003
 21
347.42519285082119
 31
0.0
  0
LINE
  5
CA
100
AcDbEntity
  8
0
  6
Continuous
 62
               7
100
AcDbLine
 10
258.11652536955933
 20
346.92519285082199
 30
0.0
 11
257.85405937898139
 21
343.9251928508213
 31
0.0
  0
LINE
  5
CB
100
AcDbEntity
  8
0
  6
Continuous
 62
               7
100
AcDbLine
 10
259.12034520710159
 20
346.92519285082142
 30
0.0
 11
258.85787921652491
 21
343.92519285082233
 31
0.0
  0
LINE
  5
CC
100
AcDbEntity
  8
0
  6
Continuous
 62
               7
100
AcDbLine
 10
260.1148010781809
 20
346.81816222438101
 30
0.0
 11
259.86724405440651
 21
343.98857249470575
 31
0.0
  0
LINE
  5
CD
100
AcDbEntity
  8
0
  6
Continuous
 62
               7
100
AcDbLine
 10
261.10337063682204
 20
346.6438507388857
 30
0.0
 11
260.88679206338139
 21
344.1683463168157
 31
0.0
  0
LINE
  5
CE
100
AcDbEntity
  8
0
  6
Continuous
 62
               7
100
AcDbLine
 10
262.09194019546192
 20
346.46953925338994
 30
0.0
 11
261.90634007235889
 21
344.34812013892645
 31
0.0
  0
LINE
  5
CF
100
AcDbEntity
  8
0
  6
Continuous
 62
               7
100
AcDbLine
 10
263.08050975410089
 20
346.29522776789554
 30
0.0
 11
262.92588808133553
 21
344.52789396103651
 31
0.0
  0
LINE
  5
D0
100
AcDbEntity
  8
0
  6
Continuous
 62
               7
100
AcDbLine
 10
264.06907931274242
 20
346.12091628240012
 30
0.0
 11
263.94543609031183
 21
344.70766778314589
 31
0.0
  0
LINE
  5
D1
100
AcDbEntity
  8
0
  6
Continuous
 62
               7
100
AcDbLine
 10
265.05764887138071
 20
345.94660479690413
 30
0.0
 11
264.96498409928711
 21
344.88744160525653
 31
0.0
  0
LINE
  5
D2
100
AcDbEntity
  8
0
  6
Continuous
 62
               7
100
AcDbLine
 10
253.85405937898122
 20
345.67519285082255
 30
0.0
 11
253.85405937898082
 21
345.17519285082221
 31
0.0
  0
LINE
  5
D3
100
AcDbEntity
  8
0
  6
Continuous
 62
               7
100
AcDbLine
 10
257.85405937898139
 20
343.9251928508213
 30
0.0
 11
253.85405937898082
 21
345.17519285082221
 31
0.0
  0
LINE
  5
D4
100
AcDbEntity
  8
0
  6
Continuous
 62
               7
100
AcDbLine
 10
253.85405937898122
 20
345.67519285082255
 30
0.0
 11
257.8540593789802
 21
346.92519285082074
 31
0.0
  0
LINE
  5
D5
100
AcDbEntity
  8
0
  6
Continuous
 62
               2
100
AcDbLine
 10
286.8938865628993
 20
387.05684043145664
 30
0.0
 11
286.8938865628993
 21
405.55684043145664
 31
0.0
  0
LINE
  5
D6
100
AcDbEntity
  8
0
  6
Continuous
 62
               4
100
AcDbLine
 10
14.142135623730949
 20
595.85786437626905
 30
0.0
 11
14.142135623730949
 21
615.85786437626905
 31
0.0
  0
LINE
  5
D7
100
AcDbEntity
  8
0
  6
Continuous
 62
               4
100
AcDbLine
 10
164.14213562373095
 20
595.85786437626905
 30
0.0
 11
14.142135623730949
 21
595.85786437626905
 31
0.0
  0
LINE
  5
D8
100
AcDbEntity
  8
0
  6
Continuous
 62
               4
100
AcDbLine
 10
164.14213562373095
 20
615.85786437626905
 30
0.0
 11
164.14213562373095
 21
595.85786437626905
 31
0.0
  0
LINE
  5
D9
100
AcDbEntity
  8
0
  6
Continuous
 62
               4
100
AcDbLine
 10
164.14213562373095
 20
615.85786437626905
 30
0.0
 11
14.142135623730949
 21
615.85786437626905
 31
0.0
  0
LINE
  5
DA
100
AcDbEntity
  8
0
  6
Continuous
 62
               4
100
AcDbLine
 10
714.78679656440374
 20
21.213203435596483
 30
0.0
 11
714.78679656440374
 21
41.213203435596483
 31
0.0
  0
LINE
  5
DB
100
AcDbEntity
  8
0
  6
Continuous
 62
               4
100
AcDbLine
 10
864.78679656440374
 20
21.213203435596483
 30
0.0
 11
714.78679656440374
 21
21.213203435596483
 31
0.0
  0
LINE
  5
DC
100
AcDbEntity
  8
0
  6
Continuous
 62
               4
100
AcDbLine
 10
864.78679656440374
 20
41.213203435596483
 30
0.0
 11
864.78679656440374
 21
21.213203435596483
 31
0.0
  0
LINE
  5
DD
100
AcDbEntity
  8
0
  6
Continuous
 62
               4
100
AcDbLine
 10
864.78679656440374
 20
41.213203435596483
 30
0.0
 11
714.78679656440374
 21
41.213203435596483
 31
0.0
  0
LINE
  5
DE
100
AcDbEntity
  8
0
  6
Continuous
 62
               3
100
AcDbLine
 10
285.8938865628993
 20
243.05684043145666
 30
0.0
 11
605.89388656289952
 21
243.05684043145666
 31
0.0
  0
LINE
  5
DF
100
AcDbEntity
  8
0
  6
Continuous
 62
               6
100
AcDbLine
 10
290.49388646753192
 20
243.05684043145666
 30
0.0
 11
331.29388665826684
 21
243.05684043145666
 31
0.0
  0
LINE
  5
E0
100
AcDbEntity
  8
0
  6
Continuous
 62
               6
100
AcDbLine
 10
335.89388656289941
 20
238.45684052682404
 30
0.0
 11
335.89388656289941
 21
223.05684043145666
 31
0.0
  0
LINE
  5
E1
100
AcDbEntity
  8
0
  6
Continuous
 62
               6
100
AcDbLine
 10
335.89388656289941
 20
223.05684043145666
 30
0.0
 11
333.59388661058313
 21
223.05684043145666
 31
0.0
  0
LINE
  5
E2
100
AcDbEntity
  8
0
  6
Continuous
 62
               6
100
AcDbLine
 10
333.59388661058313
 20
223.05684043145666
 30
0.0
 11
333.59388661058313
 21
238.45684052682404
 31
0.0
  0
LINE
  5
E3
100
AcDbEntity
  8
0
  6
Continuous
 62
               6
100
AcDbLine
 10
331.29388665826684
 20
240.75684047914038
 30
0.0
 11
290.49388646753192
 21
240.75684047914038
 31
0.0
  0
LINE
  5
E4
100
AcDbEntity
  8
0
  6
Continuous
 62
               6
100
AcDbLine
 10
288.19388651521558
 20
238.45684052682404
 30
0.0
 11
288.19388651521558
 21
147.65684033608923
 31
0.0
  0
LINE
  5
E5
100
AcDbEntity
  8
0
  6
Continuous
 62
               6
100
AcDbLine
 10
290.49388646753192
 20
145.35684038377295
 30
0.0
 11
331.29388665826684
 21
145.35684038377295
 31
0.0
  0
LINE
  5
E6
100
AcDbEntity
  8
0
  6
Continuous
 62
               6
100
AcDbLine
 10
333.59388661058313
 20
147.65684033608923
 30
0.0
 11
333.59388661058313
 21
163.05684043145666
 31
0.0
  0
LINE
  5
E7
100
AcDbEntity
  8
0
  6
Continuous
 62
               6
100
AcDbLine
 10
333.59388661058313
 20
163.05684043145666
 30
0.0
 11
335.89388656289941
 21
163.05684043145666
 31
0.0
  0
LINE
  5
E8
100
AcDbEntity
  8
0
  6
Continuous
 62
               6
100
AcDbLine
 10
335.89388656289941
 20
163.05684043145666
 30
0.0
 11
335.89388656289941
 21
147.65684033608923
 31
0.0
  0
LINE
  5
E9
100
AcDbEntity
  8
0
  6
Continuous
 62
               6
100
AcDbLine
 10
331.29388665826684
 20
143.05684043145666
 30
0.0
 11
290.49388646753192
 21
143.05684043145666
 31
0.0
  0
LINE
  5
EA
100
AcDbEntity
  8
0
  6
Continuous
 62
               6
100
AcDbLine
 10
285.8938865628993
 20
147.65684033608923
 30
0.0
 11
285.8938865628993
 21
238.45684052682404
 31
0.0
  0
LINE
  5
EB
100
AcDbEntity
  8
0
  6
Continuous
 62
               7
100
AcDbLine
 10
573.09951404767082
 20
243.05684043145666
 30
0.0
 11
591.09951404767105
 21
261.05684043145675
 31
0.0
  0
LINE
  5
EC
100
AcDbEntity
  8
0
  6
Continuous
 62
               7
100
AcDbLine
 10
567.76967950811036
 20
244.79807370376173
 30
0.0
 11
584.02844623580552
 21
261.05684043145675
 31
0.0
  0
LINE
  5
ED
100
AcDbEntity
  8
0
  6
Continuous
 62
               7
100
AcDbLine
 10
567.76967950811036
 20
251.86914151562726
 30
0.0
 11
576.95737842393999
 21
261.05684043145675
 31
0.0
  0
LINE
  5
EE
100
AcDbEntity
  8
0
  6
Continuous
 62
               7
100
AcDbLine
 10
567.76967950811036
 20
258.94020932749265
 30
0.0
 11
569.88631061207445
 21
261.05684043145675
 31
0.0
  0
LINE
  5
EF
100
AcDbEntity
  8
0
  6
Continuous
 62
               7
100
AcDbLine
 10
544.81524280020892
 20
243.05684043145666
 30
0.0
 11
551.42835324435089
 21
249.66995087559863
 31
0.0
  0
LINE
  5
F0
100
AcDbEntity
  8
0
  6
Continuous
 62
               7
100
AcDbLine
 10
537.74417498834339
 20
243.05684043145666
 30
0.0
 11
551.42835324435089
 21
256.74101868746413
 31
0.0
  0
LINE
  5
F1
100
AcDbEntity
  8
0
  6
Continuous
 62
               7
100
AcDbLine
 10
530.67310717647786
 20
243.05684043145666
 30
0.0
 11
548.67310717647786
 21
261.05684043145675
 31
0.0
  0
LINE
  5
F2
100
AcDbEntity
  8
0
  6
Continuous
 62
               7
100
AcDbLine
 10
523.60203936461244
 20
243.05684043145666
 30
0.0
 11
541.60203936461244
 21
261.05684043145675
 31
0.0
  0
LINE
  5
F3
100
AcDbEntity
  8
0
  6
Continuous
 62
               7
100
AcDbLine
 10
516.53097155274691
 20
243.05684043145666
 30
0.0
 11
534.53097155274702
 21
261.05684043145675
 31
0.0
  0
LINE
  5
F4
100
AcDbEntity
  8
0
  6
Continuous
 62
               7
100
AcDbLine
 10
509.45990374088149
 20
243.05684043145666
 30
0.0
 11
527.45990374088149
 21
261.05684043145675
 31
0.0
  0
LINE
  5
F5
100
AcDbEntity
  8
0
  6
Continuous
 62
               7
100
AcDbLine
 10
502.38883592901595
 20
243.05684043145666
 30
0.0
 11
520.38883592901595
 21
261.05684043145675
 31
0.0
  0
LINE
  5
F6
100
AcDbEntity
  8
0
  6
Continuous
 62
               7
100
AcDbLine
 10
495.31776811715054
 20
243.05684043145666
 30
0.0
 11
513.31776811715054
 21
261.05684043145675
 31
0.0
  0
LINE
  5
F7
100
AcDbEntity
  8
0
  6
Continuous
 62
               7
100
AcDbLine
 10
488.246700305285
 20
243.05684043145666
 30
0.0
 11
506.24670030528512
 21
261.05684043145675
 31
0.0
  0
LINE
  5
F8
100
AcDbEntity
  8
0
  6
Continuous
 62
               7
100
AcDbLine
 10
481.17563249341958
 20
243.05684043145666
 30
0.0
 11
499.17563249341958
 21
261.05684043145675
 31
0.0
  0
LINE
  5
F9
100
AcDbEntity
  8
0
  6
Continuous
 62
               7
100
AcDbLine
 10
474.10456468155405
 20
243.05684043145666
 30
0.0
 11
492.10456468155405
 21
261.05684043145675
 31
0.0
  0
LINE
  5
FA
100
AcDbEntity
  8
0
  6
Continuous
 62
               7
100
AcDbLine
 10
467.03349686968863
 20
243.05684043145666
 30
0.0
 11
485.03349686968863
 21
261.05684043145675
 31
0.0
  0
LINE
  5
FB
100
AcDbEntity
  8
0
  6
Continuous
 62
               7
100
AcDbLine
 10
459.9624290578231
 20
243.05684043145666
 30
0.0
 11
477.9624290578231
 21
261.05684043145675
 31
0.0
  0
LINE
  5
FC
100
AcDbEntity
  8
0
  6
Continuous
 62
               7
100
AcDbLine
 10
452.89136124595768
 20
243.05684043145666
 30
0.0
 11
470.89136124595768
 21
261.05684043145675
 31
0.0
  0
LINE
  5
FD
100
AcDbEntity
  8
0
  6
Continuous
 62
               7
100
AcDbLine
 10
445.82029343409215
 20
243.05684043145666
 30
0.0
 11
463.82029343409215
 21
261.05684043145675
 31
0.0
  0
LINE
  5
FE
100
AcDbEntity
  8
0
  6
Continuous
 62
               7
100
AcDbLine
 10
438.74922562222673
 20
243.05684043145666
 30
0.0
 11
456.74922562222673
 21
261.05684043145675
 31
0.0
  0
LINE
  5
FF
100
AcDbEntity
  8
0
  6
Continuous
 62
               7
100
AcDbLine
 10
431.6781578103612
 20
243.05684043145666
 30
0.0
 11
449.6781578103612
 21
261.05684043145675
 31
0.0
  0
LINE
  5
100
100
AcDbEntity
  8
0
  6
Continuous
 62
               7
100
AcDbLine
 10
424.60708999849578
 20
243.05684043145666
 30
0.0
 11
442.60708999849578
 21
261.05684043145675
 31
0.0
  0
LINE
  5
101
100
AcDbEntity
  8
0
  6
Continuous
 62
               7
100
AcDbLine
 10
417.53602218663025
 20
243.05684043145666
 30
0.0
 11
435.53602218663025
 21
261.05684043145675
 31
0.0
  0
LINE
  5
102
100
AcDbEntity
  8
0
  6
Continuous
 62
               7
100
AcDbLine
 10
410.46495437476483
 20
243.05684043145666
 30
0.0
 11
428.46495437476483
 21
261.05684043145675
 31
0.0
  0
LINE
  5
103
100
AcDbEntity
  8
0
  6
Continuous
 62
               7
100
AcDbLine
 10
403.393894190487
 20
243.05684043145666
 30
0.0
 11
421.3938827491055
 21
261.05684043145675
 31
0.0
  0
LINE
  5
104
100
AcDbEntity
  8
0
  6
Continuous
 62
               7
100
AcDbLine
 10
396.32281875103388
 20
243.05684043145666
 30
0.0
 11
414.32281875103388
 21
261.05684043145675
 31
0.0
  0
LINE
  5
105
100
AcDbEntity
  8
0
  6
Continuous
 62
               7
100
AcDbLine
 10
389.25175093916835
 20
243.05684043145666
 30
0.0
 11
407.25175093916835
 21
261.05684043145675
 31
0.0
  0
LINE
  5
106
100
AcDbEntity
  8
0
  6
Continuous
 62
               7
100
AcDbLine
 10
382.18068312730293
 20
243.05684043145666
 30
0.0
 11
400.18068312730293
 21
261.05684043145675
 31
0.0
  0
LINE
  5
107
100
AcDbEntity
  8
0
  6
Continuous
 62
               7
100
AcDbLine
 10
375.1096153154374
 20
243.05684043145666
 30
0.0
 11
393.1096153154374
 21
261.05684043145675
 31
0.0
  0
LINE
  5
108
100
AcDbEntity
  8
0
  6
Continuous
 62
               7
100
AcDbLine
 10
368.03854750357198
 20
243.05684043145666
 30
0.0
 11
386.03854750357198
 21
261.05684043145675
 31
0.0
  0
LINE
  5
109
100
AcDbEntity
  8
0
  6
Continuous
 62
               7
100
AcDbLine
 10
360.96747969170644
 20
243.05684043145666
 30
0.0
 11
378.96747969170644
 21
261.05684043145675
 31
0.0
  0
LINE
  5
10A
100
AcDbEntity
  8
0
  6
Continuous
 62
               7
100
AcDbLine
 10
353.89641187984103
 20
243.05684043145666
 30
0.0
 11
371.89641187984103
 21
261.05684043145675
 31
0.0
  0
LINE
  5
10B
100
AcDbEntity
  8
0
  6
Continuous
 62
               7
100
AcDbLine
 10
346.82534406797549
 20
243.05684043145666
 30
0.0
 11
364.82534406797561
 21
261.05684043145675
 31
0.0
  0
LINE
  5
10C
100
AcDbEntity
  8
0
  6
Continuous
 62
               7
100
AcDbLine
 10
339.75427625611007
 20
243.05684043145666
 30
0.0
 11
357.75427625611007
 21
261.05684043145675
 31
0.0
  0
LINE
  5
10D
100
AcDbEntity
  8
0
  6
Continuous
 62
               7
100
AcDbLine
 10
332.68320844424454
 20
243.05684043145666
 30
0.0
 11
350.68320844424454
 21
261.05684043145675
 31
0.0
  0
LINE
  5
10E
100
AcDbEntity
  8
0
  6
Continuous
 62
               7
100
AcDbLine
 10
325.61214063237912
 20
243.05684043145666
 30
0.0
 11
343.61214063237912
 21
261.05684043145675
 31
0.0
  0
LINE
  5
10F
100
AcDbEntity
  8
0
  6
Continuous
 62
               7
100
AcDbLine
 10
318.54107282051359
 20
243.05684043145666
 30
0.0
 11
336.5410728205137
 21
261.05684043145675
 31
0.0
  0
LINE
  5
110
100
AcDbEntity
  8
0
  6
Continuous
 62
               7
100
AcDbLine
 10
311.47000500864812
 20
243.05684043145666
 30
0.0
 11
329.47000500864817
 21
261.05684043145675
 31
0.0
  0
LINE
  5
111
100
AcDbEntity
  8
0
  6
Continuous
 62
               7
100
AcDbLine
 10
304.39893719678258
 20
243.05684043145666
 30
0.0
 11
322.39893719678264
 21
261.05684043145675
 31
0.0
  0
LINE
  5
112
100
AcDbEntity
  8
0
  6
Continuous
 62
               7
100
AcDbLine
 10
297.32786938491722
 20
243.05684043145666
 30
0.0
 11
315.32786938491722
 21
261.05684043145675
 31
0.0
  0
LINE
  5
113
100
AcDbEntity
  8
0
  6
Continuous
 62
               7
100
AcDbLine
 10
290.25680157305169
 20
243.05684043145666
 30
0.0
 11
308.25680157305169
 21
261.05684043145675
 31
0.0
  0
LINE
  5
114
100
AcDbEntity
  8
0
  6
Continuous
 62
               7
100
AcDbLine
 10
285.8938865628993
 20
245.76499323316986
 30
0.0
 11
301.18573376118621
 21
261.05684043145675
 31
0.0
  0
LINE
  5
115
100
AcDbEntity
  8
0
  6
Continuous
 62
               7
100
AcDbLine
 10
285.8938865628993
 20
252.83606104503534
 30
0.0
 11
294.11466594932068
 21
261.05684043145675
 31
0.0
  0
LINE
  5
116
100
AcDbEntity
  8
0
  6
Continuous
 62
               6
100
AcDbLine
 10
335.89388656289941
 20
243.05684043145666
 30
0.0
 11
335.89388656289941
 21
143.05684043145666
 31
0.0
  0
LINE
  5
117
100
AcDbEntity
  8
0
  6
Continuous
 62
               6
100
AcDbLine
 10
605.89388656289952
 20
143.05684043145666
 30
0.0
 11
335.89388656289941
 21
143.05684043145666
 31
0.0
  0
LINE
  5
118
100
AcDbEntity
  8
0
  6
Continuous
 62
               6
100
AcDbLine
 10
605.89388656289952
 20
163.05684043145666
 30
0.0
 11
335.89388656289941
 21
163.05684043145666
 31
0.0
  0
LINE
  5
119
100
AcDbEntity
  8
0
  6
Continuous
 62
               6
100
AcDbLine
 10
605.89388656289952
 20
223.05684043145666
 30
0.0
 11
335.89388656289941
 21
223.05684043145666
 31
0.0
  0
LINE
  5
11A
100
AcDbEntity
  8
0
  6
DASHED
 62
               6
100
AcDbLine
 10
605.89388656289952
 20
240.75684043145677
 30
0.0
 11
335.89388656289941
 21
240.75684043145677
 31
0.0
  0
LINE
  5
11B
100
AcDbEntity
  8
0
  6
DASHED
 62
               6
100
AcDbLine
 10
605.89388656289952
 20
145.35684043145667
 30
0.0
 11
335.89388656289941
 21
145.35684043145667
 31
0.0
  0
LINE
  5
11C
100
AcDbEntity
  8
0
  6
Continuous
 62
               3
100
AcDbLine
 10
285.8938865628993
 20
261.05684043145675
 30
0.0
 11
605.89388656289952
 21
261.05684043145675
 31
0.0
  0
LINE
  5
11D
100
AcDbEntity
  8
0
  6
Continuous
 62
               2
100
AcDbLine
 10
288.8938865628993
 20
266.05684043145675
 30
0.0
 11
605.89388656289952
 21
266.05684043145675
 31
0.0
  0
LINE
  5
11E
100
AcDbEntity
  8
0
  6
Continuous
 62
               4
100
AcDbLine
 10
543.34165603180372
 20
370.05684043145675
 30
0.0
 11
475.21432426742786
 21
252.05684043145678
 31
0.0
  0
LINE
  5
11F
100
AcDbEntity
  8
0
  6
Continuous
 62
               4
100
AcDbLine
 10
534.68140199395941
 20
355.05684043145686
 30
0.0
 11
697.08564496573536
 21
355.05684043145686
 31
0.0
  0
LINE
  5
120
100
AcDbEntity
  8
0
  6
Continuous
 62
               4
100
AcDbLine
 10
526.02114795611499
 20
340.05684043145675
 30
0.0
 11
697.08564496573536
 21
340.05684043145675
 31
0.0
  0
LINE
  5
121
100
AcDbEntity
  8
0
  6
Continuous
 62
               4
100
AcDbLine
 10
543.34165603180372
 20
370.05684043145686
 30
0.0
 11
697.08564496573536
 21
370.05684043145686
 31
0.0
  0
LINE
  5
122
100
AcDbEntity
  8
0
  6
Continuous
 62
               7
100
AcDbLine
 10
580.17058185953647
 20
243.05684043145666
 30
0.0
 11
598.17058185953692
 21
261.05684043145675
 31
0.0
  0
LINE
  5
123
100
AcDbEntity
  8
0
  6
Continuous
 62
               3
100
AcDbLine
 10
285.8938865628993
 20
243.05684043145666
 30
0.0
 11
285.8938865628993
 21
261.05684043145675
 31
0.0
  0
LINE
  5
124
100
AcDbEntity
  8
0
  6
DASHED
 62
               6
100
AcDbLine
 10
285.3938865628993
 20
262.55684043145675
 30
0.0
 11
605.89388656289952
 21
262.55684043145675
 31
0.0
  0
LINE
  5
125
100
AcDbEntity
  8
0
  6
Continuous
 62
               4
100
AcDbLine
 10
286.8938865628993
 20
264.05684043145675
 30
0.0
 11
404.58078828002681
 21
264.05684043145675
 31
0.0
  0
LINE
  5
126
100
AcDbEntity
  8
0
  6
Continuous
 62
               4
100
AcDbLine
 10
394.93193958198185
 20
265.5283978589332
 30
0.0
 11
404.60807659342356
 21
264.68184556370852
 31
0.0
  0
LINE
  5
127
100
AcDbEntity
  8
0
  6
Continuous
 62
               4
100
AcDbLine
 10
354.73733742146305
 20
264.05684043145675
 30
0.0
 11
357.81551871139413
 21
272.51407401852987
 31
0.0
  0
LINE
  5
128
100
AcDbEntity
  8
0
  6
Continuous
 62
               4
100
AcDbLine
 10
354.73733742146305
 20
264.05684043145675
 30
0.0
 11
360.52242590864194
 21
270.95124041952761
 31
0.0
  0
LINE
  5
129
100
AcDbEntity
  8
0
  6
Continuous
 62
               7
100
AcDbLine
 10
601.38378529513329
 20
243.05684043145678
 30
0.0
 11
605.89388656289952
 21
247.56694169922284
 31
0.0
  0
LINE
  5
12A
100
AcDbEntity
  8
0
  6
Continuous
 62
               7
100
AcDbLine
 10
594.31271748326787
 20
243.05684043145678
 30
0.0
 11
605.89388656289952
 21
254.63800951108837
 31
0.0
  0
LINE
  5
12B
100
AcDbEntity
  8
0
  6
Continuous
 62
               7
100
AcDbLine
 10
587.24164967140234
 20
243.05684043145678
 30
0.0
 11
605.24164967140234
 21
261.05684043145675
 31
0.0
  0
LINE
  5
12C
100
AcDbEntity
  8
0
  6
Continuous
 62
               4
100
AcDbLine
 10
563.89388656289952
 20
243.05684043145666
 30
0.0
 11
563.89388656289952
 21
261.05684043145675
 31
0.0
  0
LINE
  5
12D
100
AcDbEntity
  8
0
  6
Continuous
 62
               4
100
AcDbLine
 10
386.49160222689244
 20
319.05684043145675
 30
0.0
 11
354.73733742146305
 21
264.05684043145675
 31
0.0
  0
LINE
  5
12E
100
AcDbEntity
  8
0
  6
Continuous
 62
               4
100
AcDbLine
 10
386.49160222689244
 20
319.05684043145675
 30
0.0
 11
464.60694656951262
 21
319.05684043145675
 31
0.0
  0
LINE
  5
12F
100
AcDbEntity
  8
0
  6
Continuous
 62
               2
100
AcDbLine
 10
288.8938865628993
 20
266.05684043145675
 30
0.0
 11
288.8938865628993
 21
363.2740947242753
 31
0.0
  0
LINE
  5
130
100
AcDbEntity
  8
0
  6
Continuous
 62
               4
100
AcDbLine
 10
286.89388656289924
 20
264.05684043145675
 30
0.0
 11
286.8938865628993
 21
378.2740947242753
 31
0.0
  0
LINE
  5
131
100
AcDbEntity
  8
0
  6
DASHED
 62
               6
100
AcDbLine
 10
285.3938865628993
 20
262.55684043145675
 30
0.0
 11
285.3938865628993
 21
406.23505138451526
 31
0.0
  0
CIRCLE
  5
132
100
AcDbEntity
  8
0
  6
Continuous
 62
               4
100
AcDbCircle
 10
308.2038279004525
 20
308.01590183230849
 30
0.0
 40
1.5
  0
CIRCLE
  5
133
100
AcDbEntity
  8
0
  6
Continuous
 62
               4
100
AcDbCircle
 10
388.25267322692105
 20
303.01284899940424
 30
0.0
 40
1.5
  0
CIRCLE
  5
134
100
AcDbEntity
  8
0
  6
Continuous
 62
               4
100
AcDbCircle
 10
330.8938865628993
 20
287.05684043145675
 30
0.0
 40
1.5
  0
CIRCLE
  5
135
100
AcDbEntity
  8
0
  6
Continuous
 62
               4
100
AcDbCircle
 10
330.8938865628993
 20
387.05684043145664
 30
0.0
 40
1.5
  0
CIRCLE
  5
136
100
AcDbEntity
  8
0
  6
Continuous
 62
               4
100
AcDbCircle
 10
330.8938865628993
 20
387.05684043145664
 30
0.0
 40
1.5
  0
CIRCLE
  5
137
100
AcDbEntity
  8
0
  6
Continuous
 62
               4
100
AcDbCircle
 10
330.8938865628993
 20
407.05684043145664
 30
0.0
 40
1.5
  0
CIRCLE
  5
138
100
AcDbEntity
  8
0
  6
Continuous
 62
               4
100
AcDbCircle
 10
475.21432426742786
 20
252.05684043145678
 30
0.0
 40
1.5
  0
CIRCLE
  5
139
100
AcDbEntity
  8
0
  6
Continuous
 62
               4
100
AcDbCircle
 10
481.27650209391891
 20
262.55684043145675
 30
0.0
 40
1.5
  0
CIRCLE
  5
13A
100
AcDbEntity
  8
0
  6
Continuous
 62
               4
100
AcDbCircle
 10
483.29722803608263
 20
266.05684043145675
 30
0.0
 40
1.5
  0
CIRCLE
  5
13B
100
AcDbEntity
  8
0
  6
Continuous
 62
               4
100
AcDbCircle
 10
563.89388656289952
 20
243.05684043145666
 30
0.0
 40
1.5
  0
CIRCLE
  5
13C
100
AcDbEntity
  8
0
  6
Continuous
 62
               4
100
AcDbCircle
 10
563.89388656289952
 20
261.05684043145675
 30
0.0
 40
1.5
  0
ARC
  5
13D
100
AcDbEntity
  8
0
  6
Continuous
 62
               4
100
AcDbCircle
 10
287.67663227008069
 20
378.2740947242753
 30
0.0
 40
0.782745707181397
100
AcDbArc
 50
4.9999999999992282
 51
180.0
  0
ARC
  5
13E
100
AcDbEntity
  8
0
  6
Continuous
 62
               2
100
AcDbCircle
 10
386.08560214133661
 20
281.29749664440726
 30
0.0
 40
0.808284421562694
100
AcDbArc
 50
274.99999999999949
 51
86.423665625003551
  0
ARC
  5
13F
100
AcDbEntity
  8
0
  6
Continuous
 62
               2
100
AcDbCircle
 10
289.67663227008069
 20
363.29134901709392
 30
0.0
 40
0.782745707181377
100
AcDbArc
 50
4.999999999999801
 51
180.0
  0
ARC
  5
140
100
AcDbEntity
  8
0
  6
Continuous
 62
               6
100
AcDbCircle
 10
337.47721989623267
 20
397.05684043145664
 30
0.0
 40
34.083333333333329
100
AcDbArc
 50
162.93846878010365
 51
197.06153121989618
  0
ARC
  5
141
100
AcDbEntity
  8
0
  6
Continuous
 62
               7
100
AcDbCircle
 10
293.8938865628993
 20
419.05684043145664
 30
0.0
 40
2.0
100
AcDbArc
 50
270.0
 51
0.0
  0
ARC
  5
142
100
AcDbEntity
  8
0
  6
Continuous
 62
               7
100
AcDbCircle
 10
263.03823086208359
 20
396.99336447341113
 30
0.0
 40
0.5591073560238961
100
AcDbArc
 50
279.99999999999318
 51
80.000000000004434
  0
ARC
  5
143
100
AcDbEntity
  8
0
  6
Continuous
 62
               7
100
AcDbCircle
 10
287.1438817025911
 20
393.1933644734105
 30
0.0
 40
0.7
100
AcDbArc
 50
194.03624346791301
 51
269.99999999999881
  0
ARC
  5
144
100
AcDbEntity
  8
0
  6
Continuous
 62
               7
100
AcDbCircle
 10
287.14388170259139
 20
400.79336447341166
 30
0.0
 40
0.7
100
AcDbArc
 50
90.000000000000028
 51
165.96375653208457
  0
ARC
  5
145
100
AcDbEntity
  8
0
  6
Continuous
 62
               7
100
AcDbCircle
 10
287.79733821810743
 20
399.69336447341209
 30
0.0
 40
0.3
100
AcDbArc
 50
0.0
 51
89.999999999998764
  0
ARC
  5
146
100
AcDbEntity
  8
0
  6
Continuous
 62
               7
100
AcDbCircle
 10
287.79733821810743
 20
394.29336447341063
 30
0.0
 40
0.3
100
AcDbArc
 50
269.99999999999881
 51
0.0
  0
ARC
  5
147
100
AcDbEntity
  8
0
  6
Continuous
 62
               7
100
AcDbCircle
 10
264.79495202295709
 20
345.42519285082096
 30
0.0
 40
0.5591073560238961
100
AcDbArc
 50
279.99999999999318
 51
80.000000000004434
  0
ARC
  5
148
100
AcDbEntity
  8
0
  6
Continuous
 62
               7
100
AcDbCircle
 10
288.90060286346448
 20
341.62519285082021
 30
0.0
 40
0.7
100
AcDbArc
 50
194.03624346791301
 51
269.99999999999881
  0
ARC
  5
149
100
AcDbEntity
  8
0
  6
Continuous
 62
               7
100
AcDbCircle
 10
288.90060286346483
 20
349.22519285082137
 30
0.0
 40
0.7
100
AcDbArc
 50
90.000000000000028
 51
165.96375653208457
  0
ARC
  5
14A
100
AcDbEntity
  8
0
  6
Continuous
 62
               7
100
AcDbCircle
 10
289.55405937898081
 20
348.1251928508218
 30
0.0
 40
0.3
100
AcDbArc
 50
0.0
 51
89.999999999998764
  0
ARC
  5
14B
100
AcDbEntity
  8
0
  6
Continuous
 62
               7
100
AcDbCircle
 10
289.55405937898081
 20
342.72519285082035
 30
0.0
 40
0.3
100
AcDbArc
 50
269.99999999999881
 51
0.0
  0
ARC
  5
14C
100
AcDbEntity
  8
0
  6
Continuous
 62
               6
100
AcDbCircle
 10
290.49388646753192
 20
238.45684052682404
 30
0.0
 40
2.2999999523162842
100
AcDbArc
 50
89.999999999999915
 51
180.0
  0
ARC
  5
14D
100
AcDbEntity
  8
0
  6
Continuous
 62
               6
100
AcDbCircle
 10
290.49388646753192
 20
238.45684052682404
 30
0.0
 40
4.5999999046325684
100
AcDbArc
 50
89.999999999999915
 51
180.0
  0
ARC
  5
14E
100
AcDbEntity
  8
0
  6
Continuous
 62
               6
100
AcDbCircle
 10
331.29388665826684
 20
238.45684052682404
 30
0.0
 40
2.2999999523162842
100
AcDbArc
 50
0.0
 51
89.999999999999915
  0
ARC
  5
14F
100
AcDbEntity
  8
0
  6
Continuous
 62
               6
100
AcDbCircle
 10
331.29388665826684
 20
238.45684052682404
 30
0.0
 40
4.5999999046325684
100
AcDbArc
 50
0.0
 51
89.999999999999915
  0
ARC
  5
150
100
AcDbEntity
  8
0
  6
Continuous
 62
               6
100
AcDbCircle
 10
331.29388665826684
 20
147.65684033608923
 30
0.0
 40
4.5999999046325684
100
AcDbArc
 50
270.0
 51
0.0
  0
ARC
  5
151
100
AcDbEntity
  8
0
  6
Continuous
 62
               6
100
AcDbCircle
 10
331.29388665826684
 20
147.65684033608923
 30
0.0
 40
2.2999999523162842
100
AcDbArc
 50
270.0
 51
0.0
  0
ARC
  5
152
100
AcDbEntity
  8
0
  6
Continuous
 62
               6
100
AcDbCircle
 10
290.49388646753192
 20
147.65684033608923
 30
0.0
 40
2.2999999523162842
100
AcDbArc
 50
180.0
 51
270.0
  0
ARC
  5
153
100
AcDbEntity
  8
0
  6
Continuous
 62
               6
100
AcDbCircle
 10
290.49388646753192
 20
147.65684033608923
 30
0.0
 40
4.5999999046325684
100
AcDbArc
 50
180.0
 51
270.0
  0
ARC
  5
154
100
AcDbEntity
  8
0
  6
Continuous
 62
               4
100
AcDbCircle
 10
404.58078828002681
 20
264.36993871432924
 30
0.0
 40
0.313098282872545
100
AcDbArc
 50
270.0
 51
84.999999999998892
  0
TEXT
  5
155
100
AcDbEntity
  8
0
 62
               7
100
AcDbText
 10
343.53123934007306
 20
307.31078761954211
 30
0.0
 40
9.600000381469739
  1
80
 50
356.4236956477373
 41
0.7695
  7
FontTableH_0
 72
               5
 11
353.11254478801942
 21
306.71196106921849
 31
0.0
100
AcDbText
  0
TEXT
  5
156
100
AcDbEntity
  8
0
 62
               7
100
AcDbText
 10
329.39415437913556
 20
329.85683864493274
 30
0.0
 40
9.600000381469739
  1
100
 50
89.999982013910653
 41
0.7695
  7
FontTableH_0
 72
               5
 11
329.39415889953301
 21
344.25683921713664
 31
0.0
100
AcDbText
  0
TEXT
  5
157
100
AcDbEntity
  8
0
 62
               7
100
AcDbText
 10
329.39415437913556
 20
392.25677150626086
 30
0.0
 40
9.600000381469739
  1
20
 50
89.999982013910653
 41
0.7695
  7
FontTableH_0
 72
               5
 11
329.39415739273386
 21
401.85677188773013
 31
0.0
100
AcDbText
  0
TEXT
  5
158
100
AcDbEntity
  8
0
 62
               7
100
AcDbText
 10
323.71464998460431
 20
428.55682033438586
 30
0.0
 40
8.9999997615814333
  1
コーキング（屋根工事外）
 41
0.7695
  7
FontTableH_0
 72
               5
 11
431.71464712358153
 21
428.55682033438586
 31
0.0
100
AcDbText
  0
TEXT
  5
159
100
AcDbEntity
  8
0
 62
               7
100
AcDbText
 10
381.65776521897931
 20
336.55675929922961
 30
0.0
 40
8.9999997615814333
  1
雨押え：屋根同材
 41
0.7695
  7
FontTableH_0
 72
               5
 11
453.65776331163079
 21
336.55675929922961
 31
0.0
100
AcDbText
  0
TEXT
  5
15A
100
AcDbEntity
  8
0
 62
               7
100
AcDbText
 10
392.37865144944806
 20
320.55685085196399
 30
0.0
 40
8.9999997615814333
  1
捨て板：屋根同材
 41
0.7695
  7
FontTableH_0
 72
               5
 11
464.37864954209954
 21
320.55685085196399
 31
0.0
100
AcDbText
  0
TEXT
  5
15B
100
AcDbEntity
  8
0
 62
               7
100
AcDbText
 10
722.28679835254297
 20
26.713203554805766
 30
0.0
 40
8.9999997615814333
  1
ケラバ壁取合い詳細図 【S=1/3】
 41
0.7695
  7
FontTableH_0
 72
               5
 11
857.28679477626451
 21
26.713203554805766
 31
0.0
100
AcDbText
  0
TEXT
  5
15C
100
AcDbEntity
  8
0
 62
               7
100
AcDbText
 10
552.35350496507306
 20
341.55694240469848
 30
0.0
 40
8.9999997615814866
  1
硬質木片セメント板 18mm
 41
0.7695
  7
FontTableH_0
 72
               5
 11
637.37136249961804
 21
341.55694240469848
 31
0.0
100
AcDbText
  0
TEXT
  5
15D
100
AcDbEntity
  8
0
 62
               7
100
AcDbText
 10
552.35350496507306
 20
356.55816310782348
 30
0.0
 40
8.9999997615814866
  1
アスファルトルーフィング 22Kg
 41
0.7695
  7
FontTableH_0
 72
               5
 11
663.66232280048825
 21
356.55816310782348
 31
0.0
100
AcDbText
  0
TEXT
  5
15E
100
AcDbEntity
  8
0
 62
               7
100
AcDbText
 10
562.39439851976056
 20
247.25683254141725
 30
0.0
 40
9.6000003814696431
  1
18
 50
89.999982013910028
 41
0.7695
  7
FontTableH_0
 72
               5
 11
562.39440153335897
 21
256.8568329228865
 31
0.0
100
AcDbText
  0
TEXT
  5
15F
100
AcDbEntity
  8
0
 62
               7
100
AcDbText
 10
552.35350496507306
 20
371.55810207266723
 30
0.0
 40
8.9999997615814866
  1
ハーパーズルーフ 210：各種金属板
 41
0.7695
  7
FontTableH_0
 72
               5
 11
680.35350252790545
 21
371.55810207266723
 31
0.0
100
AcDbText
  0
TEXT
  5
160
100
AcDbEntity
  8
0
 62
               7
100
AcDbText
 10
46.392136756219145
 20
601.35786449547834
 30
0.0
 40
8.9999997615814333
  1
ハーパーズルーフ210
 41
0.7695
  7
FontTableH_0
 72
               5
 11
131.89213449124276
 21
601.35786449547834
 31
0.0
100
AcDbText
  0
ENDSEC
  0
SECTION
  2
OBJECTS
  0
DICTIONARY
  5
19
100
AcDbDictionary
  3
ACAD_GROUP
350
1A
  3
ACAD_MLINESTYLE
350
1B
  3
DWGPROPS
350
161
  0
DICTIONARY
  5
1A
102
{ACAD_REACTORS
330
19
102
}
100
AcDbDictionary
  0
DICTIONARY
  5
1B
102
{ACAD_REACTORS
330
19
102
}
100
AcDbDictionary
  3
STANDARD
350
1C
  0
MLINESTYLE
  5
1C
102
{ACAD_REACTORS
330
1B
102
}
100
AcDbMlineStyle
  2
Standard
 70
               0
  3

 62
               0
 51
90.0
 52
90.0
 71
               2
 49
0.5
 62
             256
  6
ByLayer
 49
-0.5
 62
             256
  6
ByLayer
  0
XRECORD
  5
161
100
AcDbXrecord
  1
DWGPROPS COOKIE
  2

  3

  4

  6

  7

  0
ENDSEC
  0
EOF
